Walk this Way


|----------------------|-----------------------------|
|----------------------|-----------------------------|
|----------------------|-----------------------------|   This riff is played only
|--------2--------2----|---------2--------2-----2----|   for the intro.
|--0-1-2----0-1-2------|---0-1-2----0-1-2------------|
|-------------------0--|--------------------3-0------|
                                            p
|----------------------|-----------------------------|
|----------------------|-----------------------------|
|----------------------|---------------------2-------|
|--------2--------2----|---------2--------2--2-------|
|--0-1-2----0-1-2------|---0-1-2----0-1-2----0-------|
|-------------------0--|-----------------------------|


|----------------------|-----------------------------|
|----------------------|-----------------------------|
|----------------------|-----------------------------|   This riff is played in all
|--------2--------2----|---------2--------2--------2-|   other verses.
|--0-1-2----0-1-2------|---0-1-2----0-1-2------------|
|-------------------0--|--------------------0--3-0---|
                                               p
|----------------------|-----------------------------|
|----------------------|-----------------------------|
|----------------------|---------------------2-------|
|--------2--------2----|---------2--------2--2-------|
|--0-1-2----0-1-2------|---0-1-2----0-1-2----0-------|
|-------------------0--|-----------------------------|

|------------------------|
|------------------------|      This is a very basic outline (from memory)
|-------------5-5--------|      of the guitar part played during each verse.
|-5-55-55-7--5-5-8-5-7-5-|      Try different combinations of picking and
|-3-33-33-3--------------|      hammer/pulls until you find the groove.
|------------------------|

This is the riff that gets played under the verses.

----------------------------------------------------------------------
----------------------------------------------------------------------
-(5)------0-2p0---5p0-0-3-2p0-----------------------------------------
-(5)------------------------------------------------------------------
--3-3-3-3-------3-----------------------------------------------------
----------------------------------------------------------------------


Someone want to post the Final Bit? (chords in the chorus)
Off the top of my head I reckon it's this, but I Could Be Wrong ....

--3-----3---------------
--3-----3---------------
--1-----2---------------
--2-----2---------------
--2-----0---------------
--0---------------------