AFI - Days Of the Phoenix

Intro
E|----5------2--------|----3------0-------0-|----5------2---3/--|-7-7-7-7-7-7-7-7------|
B|-0------0------0----|-0------0-------0----|-0------0------0/--|-0-0-0-0-0-0-0-0------|
G|------------------4-|---------------------|-------------------|----------------------|
D|--------------------|---------------------|-------------------|----------------------|
A|--------------------|---------------------|-------------------|----------------------|
E|--------------------|---------------------|-------------------|----------------------|

B5 D5 G5 A5 x2

Verse
(B5)       (A5)
I remember when,
(B5)           (D5)            (G5)            (E5)             (A5)  
I was told the story of Crushed Velvet, Candle Wax, and Dried up flowers.
(as above)
The figure on the bed,
all dressed up in roses calling,
beckoning to sleep,
offering a dream.

Verse 2 w/verse
Words were as mystical as purring animals,
The circle of rage,
The ghost on the stage appeared,
Time was so tangible,
I'll never let it go,
Ghost stories handed down,
               F#5
reached secret tunnels below.
G5           A5
No one could see me...

Chorus
B5 D5 G5
      I fell into yesterday,
B5 D5     G5
      Our dreams seemed not far away,
B5
I want to,
D5
I want to,
G5
I want to stay,
B5 D5 G5          A5
      I fell into fantasy.

Play first part of intro

Verse 2

Chorus

Middle

----------------|----------------|
----------------|-------3--------|
-----0----------|-----0----------|
---4---4--------|---4------------|  x4
-2--------------|-2--------------|
----------------|----------------|

The girl on the wall was waiting for me,
And she was always smiling,
The teenage death boys,
The teenage death girls,

|-----------------|-3-3-3-2-2-2-0-0-|-----------------|-----------------|
|-0-0-0-0-3-3-2-2-|-0-0-0-0-0-0-0-0-|-2-2-2-3-3-3-5-5-|-2-2-2-3-3-3-2-2-|
|-4-4-4-4-4-4-4-4-|-4-4-4-4-4-4-4-4-|-0-0-0-0-0-0-0-0-|-2-2-2-2-2-2-2-2-|
|-----------------|-----------------|-----------------|-----------------|  x2
|-----------------|-----------------|-----------------|-----------------|
|-----------------|-----------------|-----------------|-----------------|

And everyone was dancing,
Nothing could touch us then,
No one could change us then,
And everyone was dancing,
Nothing could hurt us then.
No one could see us then,
And everyone was dancing,
And everyone was dancing.

G5           A5
No one could see me...

Chorus

B5 D5     G5                A5
      Our dreams seemed not far away   x3
B5 D5 G5          A5      Bm    
      I fell into fantasy

http://www.sparkystabs.co.uk