Alkaline Trio-Private Eye

Intro


e|-------------------------|-------------------------|-------------------------|-------------------------|
B|-------------------------|-------------------------|-------------------------|-------------------------|
G|-12-12-12-12-12-12-11-11-|-14-14-14-14-12-12-12-12-|-------------------------|-------------------------|  x3
D|-------------------------|-------------------------|-9--9--9--9--9--9--9--9--|-10-10-10-10-10-10-10-10-|
A|-10-10-10-10-10-10-9--9--|-12-12-12-12-10-10-10-10-|-9--9--9--9--9--9--9--9--|-10-10-10-10-10-10-10-10-|
E|-0--0--0--0--0--0--0--0--|-0--0--0--0--0--0--0--0--|-7--7--7--7--7--7--7--7--|-8--8--8--8--8--8--8--8--|

4th time as above exept last bar:   e|----------------------|
						B|----------------------|
						G|----------------------|
						D|-10-10-10----9--9--9--|
						A|-10-10-10----9--9--9--|
						E|-8--8--8-----7--7--7--|

Verse w/intro PM
I dragged this lake looking for corpses,
Dusted for prints, pried up the floorboards,
Pieces of plane and black box recorders don't lie.
And I've been preoccupied with these sick, sick senses,
That sense DNA on barbed wire fences,
Maybe someday I'll find me a suspect that has no alibi.

w/intro

Verse (as above)
New Years Eve was as boring as heaven,
I watched flies fuck on channel 11,
There was no-one to kiss, there was nothing to drink,
Except some old rotten milk someone left in the sink.
And theres no ring on the phone anymore,
Theres no reason to call, I passed out on the floor,
Smoked myself stupid and drank my insides raisin dry.

Chorus
           G5
But at the right place at the right time,
        B5                       D5
I'll be dead wrong and you'll be just fine,
            G5                                    e5         D5
And I won't have to quit doing fucked up shit for anyone but me.
           G5
And at the right place at the right time,
             B5               D5
It will have been worth it to stand in line,
              G5                                    e5         D5
And you won't have to stop saying 'I love cops' for anyone but me,

Your private eye

w/intro

Verse 1 (no gtr 1st half, PM 2nd half)

Chorus

             C5     D5
Your private eye,        Your private eye

e|-------------------------|-------------------------|
B|-------------------------|-------------------------|
G|-12-12-12-12-12-12-11-11-|-14-14-14-14-12-12-12-12-| x4
D|-------------------------|-------------------------|
A|-10-10-10-10-10-10-9--9--|-12-12-12-12-10-10-10-10-|
E|-------------------------|-------------------------|

Chorus

             G5
Your private eye

http://www.sparkystabs.co.uk