American Hi-fi - Another Pefect Day

Tune down a semitone

Intro
C C/B Am G5 Dsus2   FM7   x2

Verse
C           D9
I'm holding on
                 FM7 
Waiting for your call 
                  G 
It's simple but I can't explain this,
C           D9
I'm sinking down
                    FM7 
I feel like I could die
                  G 
I'm falling off I don't know why 

Chorus w/intro
I still believe it when you say 
It's another perfect day, another perfect day.  
I still believe it when you say 
It's another perfect day, another perfect day. 

Verse
So I might try 
To leave it all behind 
I know tomorrows not so bright now,
I'll say goodbye 
Cause nothing good can last 
You wear and fade you're nowhere fast. 

Bridge
Am                 AmM7
Today I don't know how 
                 Dsus2
To keep it all inside 
                        FM7
But I guess I'll let it slide 

Chorus 

Solo w/chorus                          ___________________
                                       | 1st time
Eb||-12--------------|---15----12r-----|-----------------|-----------------||
Bb||-------13--------|---------------13|--15-------15r---|--15-------15r---||
Gb||*-----------12---|-----------------|-----------------|----------------*||
Db||*----------------|-----------------|-----------------|----------------*||
Ab||-----------------|-----------------|-----------------|-----------------||
Eb||-----------------|-----------------|-----------------|-----------------||  
  ___________________________
  | 2nd time
Eb|-------------------------|---------------13r-----|-12----------------|
Bb|-15-15-15-15-13-13-13-13-|-12-13-15--------------|-------------------|
Gb|-------------------------|----------12-----------|-------------------|
Db|-------------------------|-----------------------|-------------------|
Ab|-------------------------|-----------------------|-------------------|
Eb|-------------------------|-----------------------|-------------------|

Bridge
Today I don't know why  
I thought that it was real 
But I guess it's no big deal 

Chorus

Outro w/chorus
I don't know how 
I don't know how     
                    Fmaj7         C
I don't know how to let it slide

http://www.sparkystabs.co.uk