American Hi fi-Flavor Of The Weak

Dropped D tuning DADGBe

Bb5	888xxx	C5	x355xx
F5	333xxx	G#5	666xxx
G5	555xxx
Eb5	x688xx

Intro
G|---||*-----------------|-----------------*||-----------------|-----------------|
D|-3-||*-3-5---5-5---5-5-|---1-1-0-1-1-0-3-*||-3-5---5-5---5-5-|---1-1-0-1-1-0---|
A|-3-||--3-5---5-5---5-5-|---1-1-0-1-1-0-3--||-3-5---5-5---5-5-|---1-1-0-1-1-0---|
D|-3-||--3-5---5-5---5-5-|---1-1-0-1-1-0-3--||-3-5---5-5---5-5-|---1-1-0-1-1-0---|

Verse
Bb5              F5                  G5
  She paints her nails and she don't know,
             Eb5                Bb5
He's got her best friend on the phone.
                F5              G5
She'll wash her hair, his dirty clothes,
    Eb5
Are all he gives to her.

Bridge
G5             Bb5            F5
  And he's got posters on the wall,
   C5                          Eb5
Of all the girls he wished she was,
             F5
And he means everything to her.

Chorus
Bb5              F5             C5
  Her boyfriend, he don't know,
         Eb5
Anything, about her,
    Bb5         F5         C5
He's too stoned, Nintendo,
            Eb5              Bb5     F5
I wish that I could make her see,
C5               Eb5            Bb5     F5 
  She's just the flavour of the week.

G|-----------------|-----------------|
D|-3-5---5-5---5-5-|---1-1-0-1-1-0---|
A|-3-5---5-5---5-5-|---1-1-0-1-1-0---|
D|-3-5---5-5---5-5-|---1-1-0-1-1-0---|

Verse
It's friday night and she's all alone,
He's a million miles away.
She's dressed to kill, the tv's on,
He's connected to the sound.

Bridge
And he's got pictures on the wall,
Of all the girls he's loved before,
And she knows all his favourite songs.

Chorus

Intro

Solo
Bb5  F5  C5  Eb5 x2

Chorus (Bb5  F5  C5  Eb5 til end)
Her boyfriend, he don't know,
He's too stoned, he's too stoned,
He's too stoned, he's too stoned,

Chorus

C5             Eb5            Bb5    F5  C5 
Yeah she's the flavour of the week,
                 G#5
And she makes me wait.