Goldfinger by Ash 

Intro
Bb7sus4 Bb7

Abm  B  Gb  B  Gb  B  Gb  B  Db  Bb x2

Verse
Bb   Gm
Move closer
Cm     F       Bb
set my mind on fire
Bb     Gm
taking over
Cm              F   E7         A7      Cm    F        Bb
the world seems so alive oh uh-oh, the world seems so alive

Chorus
Bb                 Ab        B      Gb            B       
She slips into the night and she is gone, gone to settle the score, 
Gb     B           Gb    B                    Db  Bb
gone into the town, rain shining in her eyes.
Bb                  Ab      B      Gb
Her brother started school again today,
             B              Gb     B          Gb        B           Db   Bb
a thought to pass the time, to occupy my mind while I'm waiting for her.

Verse
Down in the basement
listening to the rain
Thinking things over
I think it over again, oh uh-oh, I think it over again

Chorus

Solo
   Bb       Ebm
|------------------------|--------6--6--6--6--6--6--|
|--3------------------4--|--------------------------|
|-----3----------3-------|--3--3--------------------|
|--------3--4------------|--------------------------|
|------------------------|--------------------------|
|------------------------|--------------------------|
   Bb       Ebm                                       Bb       Ebm                                                                        
|------------------------|-------------------6----|------------------------|
|--3------------------4--|-------4----------------|--3------------------4--|
|-----3----------3-------|----3-----3--3--3-------|-----3----------3-------|
|--------3--4------------|------------------------|--------3--4------------|
|------------------------|------------------------|------------------------|
|------------------------|------------------------|------------------------|
                         Bb       Ebm                                                         
|------------6--------|------------------------|------------------6----|
|---------------------|--3------------------4--|-----------------------|
|----3--3-------------|-----3----------3-------|----3-------3--3-------|
|---------------------|--------3--4------------|---------4-------------|
|---------------------|------------------------|-----------------------|
|---------------------|------------------------|-----------------------|
   Bb       Ebm                                                                
|------------------------|------------6--------|
|--3------------------4--|----4----------------|
|-----3----------3-------|-------3-------------|
|--------3--4------------|---------------------|
|------------------------|---------------------|
|------------------------|---------------------|

Verse
I'm writing it down,
listen to the rain.
She'll be here soon,
I lie back and drift away,oh uh-oh, I lie back and drift away

Chorus

w/chorus
I'm feeling so alive, feeling so real
On a stormy night, the rain is coming down
Rain like never before
I've got some records on, some bottles of wine
On a stormy night, the rain is lashing down
And I'm waiting for her