Ash-Jack Names The Planets

VERSE:
e---------------------------
B---------------------------
G-9-9----------9-9----------
D-9-9-9-9-9----9-9--7-7-7-7-
A-7-7-9-9-9----7-7--7-7-7-7-
E-----7-7-7---------5-5-5-5-

CHORUS:
e-------------------------
B-------------------------
G----5--5-5-5----7--7-7-7-
D-5--5--5-5-5-7--7--7-7-7-
A-5--3--3-3-3-7--5--5-5-5-
E-3-----------5-----------

repeat this and then add this bit on the end
e------------------------
B------------------------
G-8----10----------------
D-8-8--10--10-10-10-10---
A-6-8--8---10-10-10-10---
E---6------8--8--8--8----

We were walking, walking in two worlds
In the gardens of sunlight home
Bad children on the phone
With held me to with hold you
Said I'd kiss you if you want
You've got things back to front
I got a letter, I sent it back
I didn't like it, what you had

Jack names the planets after you

When I turned you had gone away
So I didn't skip upon that day
Mororse feelings, small mind
Don't touch his face you might like his kind
Said I'd kiss you if you want
You've got things back to front
Don't mind your spelling, it ain't so bad
Things like that they nevermade me quite so mad as you

Jack names the planets after you
I wish you'd come back, everythings ready for you
You are welcome if you plan to
You can come walking and you know where
You've got to understand that you got to care
Said I'd kiss you if you want
You've got things back to front
My mother's dying I've got to go home
But there's one more you won't be solely on your own

Jack names the planets after you