ASH - OH YEAH

E7sus4	020200
E7		020100
E13		020120

Inrto 
E  A5           Am        C      
Oh Yeah she was taking me over
G  Am              D            C
Oh Yeah it was the start of the summer
 
E  A5  Am  C  G  C  D   C
 
E7sus4 E7    E13   E7
Oooo   ahhh  Oooo  ahhh
 
Verse
   A
On warm June evenings She would come to my house
C#m
Still in her school skirt And her summer blouse
D                       A
Talking too long as the night came on
           B               E
It was the best time of my life
    A
Her bee stung lips, Kisses sweeter than wine
    C#m
The things she whispered With breathless sighs
     D             A
The summer air was soft and warm
              B               E
Her eyes were making silent demands
           B                      C#
And as her hair came undone in my hands

Chorus  w/intro
Oh Yeah she was taking me over
Oh Yeah it was the start of the summer 
Oh Yeah she was taking me over
Oh Yeah it was the start of the summer
 
E7sus4 E7    E13   E7
Oooo   ahhh  Oooo  ahhh
 
Verse
Driving her home after midnight
I felt so good everything was alright
Her thoughts seemed so lost in the night sky
I remember everything
I don't know why these things ever end
I sometimes wish it was that summer again
I still see her in my sleep
And hear the sighing of the summer wind
Still I don't regret one thing
 
Chorus
 
E7sus4 E7    E13   E7
Oooo   ahhh  Oooo  ahhh
 
Solo w/verse
E---------------------------------------------------------------
B---------------------------5-----5--5p4--4\2--0--0--2----------
G---2--4^--4^--4^--2--4--6-----4------------------------2--4----
D---2--------------------6--------------------------------------
A------------------------4--------------------------------------
E---------------------------------------------------------------
                                                                                                                                
E---------------------------------------------------------------
B------------5h7--5h7--5h7--------------------------------------
G---4^--4/6-----------------6^--6^--6^--4--4--2--1--2--4--------
D---------------------------------------------------------9-----
A---------------------------------------------------------------
E---------------------------------------------------------------
                                                                                                                                
E---------------------------------------------------------------
B--------------------------hold bend and restrike---------------
G-------9-------------9--11^13--13--13--13--13-13^11-9----------
D---11-----11--9--11------------------------------------9--11---
A---------------------------------------------------------------
E---------------------------------------------------------------
                                                                                                                                
E----------------------------------5--5-9--9---2h4p2h4-----2----
B------------------------12^--12^--5--5/9--10-----------2-------
G---9------9--11--9--11-----------------------------------------
D------11-------------------------------------------------------
A---------------------------------------------------------------
E---------------------------------------------------------------
                                                                                                                                
E------0h2--0h2-----0-----0-------------------------------------
B---2------------0-----2-----2--0--2--2--2--0-----14--14--14----
G----------------------------------------------2----------------
D---------------------------------------------------------------
A---------------------------------------------------------------
E---------------------------------------------------------------
                                                                                                                                
E---------------------------------------------------------------
B---14--14--14--14--12--12--12--10--10--10--14--14h15p14--------
G-------------------------------------------14--14--------14----
D---------------------------------------------------------14----
A---------------------------------------------------------------
E---------------------------------------------------------------
                                                                                                                                
E---------------------------------------------------------------
B---------------------------14--12------------------------------
G---12---------------11--9--------------------------------------
D---13--7--6--11--9-----------------11^--13--13--13--13--10tr11-
A---------------------------------------------------------------
E---------------------------------------------------------------
                                                    (tr=trill)                                                                            
E-----------
B-----------
G-----------
D----8--6---
A-----------
E-----------
 
Chorus

   G         Am              D        C
It felt just like it was the start of forever
G  Am              D            C
Oh Yeah it was the start of the summer
 
E7sus4 E7    E13   E7     A
Oooo   ahhh  Oooo  ahhh