Ash - Orpheus

Intro 1
E |-------------------------------------|
B |-------------------------------------|
G |-------------------------------------|
D |-------------------------------------|		x8
A |-7--5-7--5-7-5---7--5--x-5-----------|
E |---------------------------7-6-5-3-0-|

Intro 2
|-------------------------------------|
|-------------------------------------|
|--9----7----7--9-----9---------------|   x4
|--9----7----7--9-----9---------------|
|--7----5----5--7-----7---------------|
|------------------------0--3---2--0--|

Verse
  E                 | riff 1   | A
|-------------------|----------|-----------------------------|
|----9----9--9----9-|----------|----------------/5-5-5-5p4-4-|
|----9----9--9----9-|----------|----------------/6-6-6-6p4-4-|
|----9----9--9----9-|----------|-4--2----4--2----------------|
|----7----7--7----7-|----------|-0--0----0--0----------------|
|-0-----------------|-3---2--0-|-----------------------------|

NC(E)
Yeah, that summer I did nothing
A                                    E        A
Just sleeping, thinking and hanging around
         E                            A
Left the dark streets of September
                       E
As the air was cooling down
     A
Oh yeah it was cooling down

Chorus
           C#m                B
I need the sunshine in the morning
    A
I'm heading for the open road
C#m             B
Sunshine in the morning
F#m                   riff 1
Lord you gotta let it go

Intro 2 x2
Yeah yeah yeah

w/verse
Ever since I lost her
Seems the more I learn, the less I know
Everyday I think about her
But if I look back I'm gonna turn to stone
To stone, oh yeah gonna turn to stone

Chorus

Chorus
           C#m                B
I need the sunshine in the morning
    A
Yeah I gotta feel it's glow
C#m             B
Sunshine in the morning
F#m                       riff 1 A5     riff 1   
Lord you gotta let it go

Break
Intro 1 x12
I'm heading for the open road

Bridge
   F#m
It hit me without warning
      C#m            B
I was left out on my own
    F#m
The bad times they were forming
  C#m               B
I went through them alone
A
A new day it is dawning
  C#m              B
I feel my pain is gone
    A
The open road is calling
And I am moving on

Chorus x2  riff 1

Intro 2 x 4

Finish halfway through intro 1

http://www.sparkystabs.co.uk