Ash - Renegade Cavalcade

Intro
E|-----------------|------------------|
B|-----------------|------------------|
G|-----7---7---7---|-----9-----7---6--|
D|-9-----9---9---9-|-------7----------|
A|-----------------|-7-------5---4----|
E|-----------------|------------------|

Verse w/intro
As I walk in the dirty rain
Acid seeping through my brain
I'm never gonna crack
There can be no turning back

Verse
Water runs down the window pane
As she sucks on a sugar cane
You can see it in my face
                   Em          A
Staring into outer space we're renegades

Chorus
D    Em  Bm      G      A         D      
We belong in the gutter singing
     Em   Bm       G         A
This song, all the bells are ringing
D Em F#m G A
Hey,    yeah
D Em Bm G A
Hey,   yeah

G    Em   A   D C#m
Hey, hey, hey           x2

Verse
And it feels like a dirty dream
Like I'm walking to the guillotine
Feel the voodoo in my brain
Sipping on a hurricane

Verse
Hows it feel to be a freak
Oh so plae and so unique
To walk lonely in the rain
Unashamed that we are not the same

Chorus

G    Em   A   D C#m
Hey, hey, hey           
G    Em   A
Hey, hey, hey

E|-----------------|-------------------------|
B|-----------------|-------------------------|
G|-----------7-----|-9-9-9-9-9---7-7-7-7-7---|
D|-9---7-9---7-----|-9-9-9-9-9---7-7-7-7-7---|  x6
A|-9---7-9---5-----|-7-7-7-7-7---5-5-5-5-5---|
E|-7---5-7---------|-------------------------|           

Verse
How's it feel to be alone
Set apart from all the clones
We're the ones who can't be tamed
Who go against the grain, alright

D Em F#m G A
Hey,    yeah
D Em Bm G A
Hey,   yeah

Chorus

G        Em      A    D
How's it feel to be a renegade
G        Em         A      D
We're condemned for we are not the same
G     Em    A      D
Visionaries in the cavalcade
G     Em       A
No we can't be tamed

E|-----------------|-------------------------|
B|-----------------|-------------------------|
G|-----------7-----|-9-9-9-9-9---7-7-7-7-7---|
D|-9---7-9---7-----|-9-9-9-9-9---7-7-7-7-7---| 
A|-9---7-9---5-----|-7-7-7-7-7---5-5-5-5-5---|
E|-7---5-7---------|-------------------------| 

http://www.sparkystabs.co.uk