Ash - Walking Barefoot

All Guitars Capo at fret 6 (e.g TAB 0 = 6th fret)
Note chord names are not relative to capo

KEY:
h = hammer on

[0.00]
Riff A                                                      G      C
e|---------------------------------------------------------------------------------|
B|------6--5--6--5--6--5--6--5--6--8--5--------5--------5-------0-1-----1-3-1-0----|
G|------0--0--0--0--0--0--0--0--0--0--0-----0--------0-------0----0----------------|
D|------7--7--7--7--7--7--7--7--7--7--7---------------------------2--2-------------|
A|------0--------------------------------0--------0---------------3--3-------------|
E|---------------------------------------------------------3-----------------------|
Your beau-ty took my breath away________  in___  awe__      all    day

Riff B   Fmaj7                                     C      C  
e|------0--0--0--0--0--0--0--0--0--0--0-----------------------------------|
B|------1--1--1--1--1--1--1--1--1--1--1--------1-------0-1-----1-3-1-0----|
G|------2--2--2--2--2--2--2--2--2--2--2-----2-------0----0----------------|
D|------3--3--3--3--3--3--3--3--3--3--3--3---------------2--2-------------|
A|-------------------------------------------------------3--3-------------|
E|------------------------------------------------3-----------------------|

VERSE 1 (Guitar 1 clean tone)
Riff A                                 
Your beauty took my breath away in awe all day
Riff A                                    
Your company was so relaxing easy going ways
Riff B
We saw the first signs of summer and spring time change
Riff B
Walking barefoot along the sand I hadn't planned to stay

CHORUS
G                                    Fmaj7     C
Yeah we've been walking barefoot all summ______er
 Dm                           F
It'll be sad my friend to see it come to an end
             G     C
Why can't we just quit

[0.39] Guitar 2 Solo (Capo at fret 6)
e|--0h1--0--------------------------------------------------0--1--0-|
B|----1-----3h1-------------0--1--0-------------------------1--1--1-|
G|---------------2h0-----0--0--0--0--2h0-----------------0----------|
D|--------------------3-------------------3--3--3--2--3-------------|
A|------------------------------------------------------------------|
E|------------------------------------------------------------------| [x2]

Guitar 1 chords under solo: C  |  Dm  |  G  |  Fmaj7  | [x2]

VERSE 2
Riff A                                 
You're broke all the suumer but you still sing
Riff A                                    
Don't need money when its sunny don't need anything
Riff B
Just need music sun and laughter and no currency
Riff B
The sun on your bare shoulders comes for free

CHORUS 2
G                                    Fmaj7     C
Yeah we've been walking barefoot all summ______er
 Dm                           F
It'll be sad my friend to see it come to an end
             G     C
Why can't we just quit
G                                    Fmaj7     C
Yeah we've been walking barefoot all summ______er
 Dm                           F
Why can't we just design to live like this all the time
             G     C
Why can't we just quit

[1.41] Guitar 2 Solo (Capo at fret 6)
e|--0h1--0--------------------------------------------------0--1--0-|
B|----1-----3h1-------------0--1--0-------------------------1--1--1-|
G|---------------2h0-----0--0--0--0--2h0-----------------0----------|
D|--------------------3-------------------3--3--3--2--3-------------|
A|------------------------------------------------------------------|
E|------------------------------------------------------------------| [x2]

VERSE 3
Riff A                                 
The sand ran through my fingers and the land was hot
Riff A                                    
Annointed by apollo and his chariot
Riff B
Disarmed by your charm at night I felt it again
Riff B
The day it did end to soon yeah love's sweet pain

BRIDGE
       Em
Our days are as the wind blows us
C
We are free
         F
You've a quiet life out of town
         G   C
Of coastal ease
           Em
And the wind it has no patterns
 C
We take life slow
    F
And when the night is over
         G
Our cup overflows

VERSE 4
Riff A                                 
When the summers gone and the room is cold
Riff A                                    
When you're looking at the rain and it just won't go
Riff B
Remember when the sun was high up above
Riff B
Remeber when the days were long and we were in love

Guitar 2 Solo (Capo at fret 6)
e|--0h1--0--------------------------------------------------0--1--0-|
B|----1-----3h1-------------0--1--0-------------------------1--1--1-|
G|---------------2h0-----0--0--0--0--2h0-----------------0----------|
D|--------------------3-------------------3--3--3--2--3-------------|
A|------------------------------------------------------------------|
E|------------------------------------------------------------------| [x4]

End on C Chord

Chords:
G      320003
Fmaj7  xx3210
C      x32010
Dm     x00231
F      133211
Em     022000

E-mail: feedback@walking-barefoot.com