The Ataris - Giving Up On Love

Intro
D G Bm G x2

Verse w/intro
These last few weeks I've been confused
Sometimes I wonder if I'm better off alone.
You fall in love, they break your heart.
                                     A
You fall in love again, its never ending.

Bridge
D                           A
I used to have this friend, who took his fiance
Bm                   G
To see Billy Idol, a couple weeks before their wedding day.
D                            A
This chick got backstage and left my friend outside.
Bm                               G
Next day she called from a hotel asking for a ride.

Chorus
A           G            D
I guess I'm giving up on love
A           G            D
I guess I'm giving up on love
A           G            Bm
I guess I'm giving up on love
G         A              w/intro
'cause it really kind of sucks

Verse
Uninspired and growing tired
Why am I always so attracted to drama?
So here I am grown up at 23
Will someone tell me what it takes to be happy?

Bridge
I play in my band and write a lot of songs
About relationships and how mine went wrong.
Maybe I'll meet that special girl along the way
Then she'll break my heart and leave me crying.

Chorus

Middle
D while bass plays D G B G

  (D)                          (G)
e|--------------|------------|----------------|------------|
B|--------------|------------|----------------|------------|
G|-6--------7---|------------|-6--------------|------------|
D|--------------|------------|-----7------0---|------------|
A|--------------|------------|----------------|------------|
E|--------------|------------|----------------|------------|

   (Bm)                        (A)
--------------|------------|----------------|------------|
--------------|------------|----------------|------------|
-6--------7---|------------|-6--------------|------------|
--------------|------------|-----7------0---|------------|
--------------|------------|----------------|------------|
--------------|------------|----------------|------------|

G
--------------|------------|----------------|------------|
--------------|------------|----------------|------------|
-6--------7---|------9-----|-11---------9---|-----7------|
--------------|------------|----------------|------------|
--------------|------------|----------------|------------|
--------------|------------|----------------|------------|

--------------|------------|----------------|---------------|
--------------|------------|----------------|---------------|
-6--------7---|------9-----|-6----------7---|-------9---9-9-|
--------------|------------|----------------|-------x---x-x-|
--------------|------------|----------------|-------7---7-7-|
--------------|------------|----------------|---------------|

Chorus

http://www.sparkystabs.co.uk