The Ataris - In This Diary

Tune down 1 semitone

Intro
Eb|-----------------|-----------------|-----------------|
Bb|-----------------|-----------------|-----------------|
Gb|-6-6-6-6-6-6-6-6-|-6-6-6-6-6-6-6-6-|-9-9-9-9-9-9-9-9-|
Db|-7-7-7-7-7-7-7-7-|-7-7-7-7-7-7-7-7-|-7-7-7-7-7-7-7-7-|
Ab|-----------------|-----------------|-----------------|
Eb|-----------------|-----------------|-----------------|
                               
-----------------|-----------------|-----------------|
-----------------|-----------------|-----------------|
-6-6-6-6-6-6-6-6-|-7-7-7-7-7-7-7-7-|-7-7-7-7-7-7-7-7-|
-7-7-7-7-7-7-7-7-|-7-7-7-7-7-7-7-7-|-7-7-7-7-7-7-7-7-|
-----------------|-----------------|-----------------|
-----------------|-----------------|-----------------|

F#m
Here in this diary,
E                         A
I write you visions of my summer.
           D
It was the best I ever had.
           F#m
There were choruses and sing-alongs,
    E
And that unspoken feeling.
   D                  DM7             D        DM7
Of knowing that right now is all that matters.

w/verse
All the nights we stayed up talking
And listening to 80's songs;
Quoting lines from all those movies that we love.
It still brings a smile to my face.
Bm                    D
I guess when it comes down to it...

Chorus
F#m         E        A              D
Being grown up isn't half as fun as growing up:
F#m           E                D
These are the best days of our lives.
    F#m             E  
The only thing that matters
        A              D
Is just following your heart
    F#m               E              A
And eventually you'll finally get it right.

w/verse 1
Breaking into hotel swimming pools,
And wreaking havoc on our world.
Hanging out at truck stops just to pass the time.
The black top's singing me to sleep.

w/verse 2
Lighting fireworks in parking lots,
Illuminate the blackest nights.
Cherry cokes under this moonlight summer sky.
2015 riverside, it s time to say, "goodbye."
Get on the bus, it s time to go.

Chorus

    F#m               E              A             D
And eventually you'll finally get it right. Get it right
F#m E        D
      Get it right

Chorus x2 (D instead of A both time at eond of chorus)

http://www.sparkystabs.co.uk