Audioslave - Cochise

D5/A		5577xx
Eb5/Bb	6688xx

Main riff
e|-----------------------|
B|-----------------------|
G|-----------------------|
D|-----------------------|
A|-7-5-5-------7--5------|
E|----7-7-3-0------7-3-0-|

Intro
Main riff x4

Verse main riff x7 1/2

I've been watching 
While you've been coughing 
I've been drinking life 
While you've been nauseous 
And so I drink to health 
While you kill yourself 
And I've got just one thing 
                D5/A Eb5/Bb
That I can offer 
 
Chorus 

Riff x4
-----------------------|
-----------------------|
-----------------------|
-----------------------|
-5h7-5h7-0-----------5-|
----------3-0--3--5-7--|

Go on and save yourself 
And take it out on me 
Go on and save yourself 
And take it out on me, yeah 

Solo (all tremolo picked)
----------|-----------|-----------------------|------------------------|
----------|-----------|-----------------------|------------------------|
-2b-------|-2b--------|-14b---14b---14b---14b-|-14b---14b---14b--------|
----------|-----------|-----------------------|------------------------|
----------|-----------|-----------------------|------------------------|
----------|-----------|-----------------------|------------------------|
 
Verse
I'm not a martyr 
I'm not a prophet 
And I won't preach to you 
But here's a caution 
You better understand 
That I won't hold your hand 
But if it helps you mend 
Then I won't stop it 
 
Chorus x 2
 
Middle (w/whammy, set 8vb, on bottom notes)

------------------|
------------------|
------------------|
-9------9---------|   x4
------------------|
----7------7------|
Drown, if you want
And I'll see you at the bottom

------------------|
------------------|
------------------|
-14-----14--------|   x3
------------------|
-----0-----0------|
Where you crawl
On my skin
And put the blame on me

----------|----------------|
----------|----------------|
----------|-7--------------|
-14-------|-7--------------|
----------|-5--------------|
------0---|----------------|

So you donít feel a thing

Pre-chorus
-------------------|
-------------------|
-------------------|
-9-9---------------|   x4
-7-7-0-----------5-|
------3-0--3--5-7--|
 
Chorus x2

End on E5

http://www.sparkystabs.co.uk