Aztec Camera - Somewhere In My Heart

Intro
E|----------------------------|
B|-5---5--3------3---1--------|
G|-6---6--4------4---2--------|
D|----------------------------|
A|----------------------------|
E|----------------------------|

Verse
C
Summer in the city where the air is still
A baby being born to the overkill
F
Who cares what people say
We walk down loves motorway
C
A vision of love wearing boxing gloves
And singing hearts and flowers

Chorus
F                                    E
But somewhere in my heart there is a star that shines for you
F                       C
Silver splits the blue, love will see you through
    F                                  E
And somewhere in my heart there is the will to set you free
F                 Fm    C
All you've got to be is true

Verse
A star above the city in the northern chill
A baby being born to the overkill
No say, no place to go
A TV, a radio
A vision of love wearing boxing gloves
And singing hearts and flowers

Chorus

Middle
G
Who could kneel? Whats never been as one
        Fm
And our heart's been torn since the day we were born
          E
Just like anyone
G#
From westwood to hollywood
The one thing that's understood
            G
Is that you can't buy time but you can sell your soul
And the closest thing to heaven is to rock and roll!!

Solo
                F           
E|------------|---20h17-20h17----17--------------|------------------------------|
B|--20b-------|---------------20----20-----20h17-|-20h17----17------------------|
G|------------|----------------------------------|-------19----19b---19b---19b--|
D|------------|----------------------------------|------------------------------|
A|------------|----------------------------------|------------------------------|
E|------------|----------------------------------|------------------------------|
 C                                                    F        
------------------------|---------------------------|-22b----22------------|
------------------------|---------------------------|----------------20h22-|
-19b--19b--19b--19r--17-|--------------17-----19h17-|----------------------|
------------------------|-19-----17h19--------------|----------------------|
------------------------|---------------------------|----------------------|
------------------------|---------------------------|----------------------|
                                 E
-22b--22---20---19---17--------|-17b------19b------|
--------------------------20---|-------------------|
-------------------------------|-------------------|
-------------------------------|-------------------|
-------------------------------|-------------------|
-------------------------------|-------------------|
                                (Chorus)
-22b--22b--22b--22r--20---19---|--17---------------|
-------------------------------|-------------------|
-------------------------------|-------------------|
-------------------------------|-------------------|
-------------------------------|-------------------|
-------------------------------|-------------------|

Chorus x2

w/chorus to fade

http://www.sparkystabs.co.uk