Blur-Country House

Intro:
G ---------------------------------------
D --11-11-10-10-9-9-8-8-7-7-6-6-5--------
A --------------------------------7-6-5--
E ---------------------------------------

Verse:
G ----------------------------------6-6-5-5-4-4-3-3-2-2-1-1-0-0--
D ----------------------0-0--------------------------------------
A --0-0-------2-2--2-2-------4-4--4------------------------------
E -------0-0-----------------------------------------------------

End of verse:
G --6-6-5-5-4-4----------------------
D ------------------------------0-2--
A ----------------------------2------
E --------------0-0-0-0-0-0-0--------

Chorus:
G --2-2--------------------------------5-2-----5-2---------2-----2--
D ------0/5--------------9-12-9-12-0-0-----0-0-----------2-----2----
A ----------0-4-5-6-7-7----------------------------0-0-4-----4------
E ------------------------------------------------------------------

G ------------------------------------5-2---------------0-2-1--
D --------2-------------9-12-9-12-0-0-----0-----------2--------
A --0-0-4---0-4-5-6-7-7---------------------4-5-6-0-0----------
E -------------------------------------------------------------