Blur-Globe Alone

Main/verse:
G --------------------------
D --6----2------------------
A ----4----2--4-4-----------
E ----------------22222222--

Chorus:
G -------------------------------------------------------------------------
D -------------------------------------------------------------------------
A -4-4-1-1-6-6-2---1-3-4-4-1-1-6-6-2---1-3-44-11-66-22--4-4-1-1------------
E ---------------4-------------------4--------------------------222222222--

Middle:
G ----------------------------------
D ----------------------------------
A ----------5-5-1-1-6-6-------------
E --0-0-4-4-------------5-5-4-4-4-4-