Blur-Look Inside America

Verse:                                                        
G---7---5---4--------------------------------------------||
D---------------7---5---4--------------------------------||
A---------------------------7---5---3--------------2--0--||
E---------------------------------------7---5---3--------||

G------7-----------------------0--------4--2--4--7--|
D---5-----4--7--2-----0-----3-----------------------|
A---------------------------------3-----------------|
E---------------------------------------------------|

G---0--2--4-------------------------------4--2--4--7--------||
D------------4--7--2----0-----3-----5--2--------------7-----||
A-----------------------------------------------------------||
E-----------------------------------------------------------||                                                           

Pre-chorus:
G---7--7--5--5--4--4----------------------------------------
D---------------------7--7--5--5--4--4----------------------
A---------------------------------------7--7--5--5--3--3----
E-----------------------------------------------------------
                           
G---------------------------||
D---------------------------||
A---------------------2--0--||
E---7--7--5--5--3--3--------||

Chorus:
G---------7-----------------------5--------7----------------
D---5--5--------3--3--3-------------------------------------
A---------------------------3--3-----5--5-----6-----6-------
E-----------------------------------------------------------

G------------------------------------|
D---8-----8--------------------------|
A---------------6-----6-----4-----5--|
E------------------------------------|

G---------7-----------------------5--------7----------------
D---5--5--------3--3--3-------------------------------------
A---------------------------3--3-----5--5-----6-----6-------
E-----------------------------------------------------------
         
G------------------------------------------------||
D---8-----8--------------------------------------||
A---------------6-----6-----4-----4-----4-----5--||
E------------------------------------------------||

Middle:     
G---0--------0--2--------4--------------------------|
D---------0-----------2-----------------0--0--0--0--| 2x
A---------------------------0--0--0--0--------------|
E---------------------------------------------------|
                     
G---------------------------5--4--||
D---------------------------------||
A---0--0--0--0--3--3-----3--------||
E---------------------------------||