Blur-M.O.R.

Intro:                           
G-----------------------------|
D-----------------------------| 2x
A--3--5--3--5--3--5-----3--5--|
E--------------------3--------|
                                                            
Verse:
G-----------------------------------------------|
D-----------------------------------------------|
A--3--5--3--5--3--5-----5--7--5--7--5--7-----7--|
E-----------------------------------------0-----|

G---------------------------------------------------------------|
D---------------------p----p----p---------------------3---------|
A--------------------9-0--7-0--6-0--3--5--3--5--3--5----5--3--5-|
E--4--6--4--6--4--6---------------------------------------------|
         
G------------------------------------------------|
D------------------------------------------------|
A---3--5--3--5--3--5-----5--7--5--7--5--7-----7--|
E------------------------------------------0-----|
      
G-----------------------------------------------------
D----------------------p----p----p--------------------
A---------------------9-0--7-0--6-0--3--5--3--5--3--5-
E---4--6--4--6--4--6----------------------------------
                                    
G--------------------|
D--------------------|
A---/10--10--10--10--|
E--------------------|

Chorus:                   
G--------------------------------------|
D------------------2---0--2---0--2-----| 2x
A-----------------------------------0--|
E---5--3--5---3--5---------------------|
                      
G-------------------------------------------|
D-------------------------------------------|
A--------------------5---3--5---5--3--5-----|
E---3---1--3---1--3----------------------5--|

G--------------------------------------|
D------------------2---0--2---0--2-----|
A-----------------------------------0--|
E---5--3--5---3--5---------------------|                         

G---------------------------------------------------|
D---------------------------------------------------|
A---3--5--3--5--3--5--3--5--3--5--3--5--3--5--3--5--|
E---------------------------------------------------|