Blur-Parklife

Intro/verse:
G ----------------------------
D -----------p------------p---
A ----1-2-2-2-0----1-2-2-2----
E --0------------0---------0--

Chorus:
G --------------------------
D --------------------------
A --7--1-2-2--0-7--1-2-2-0--
E --------------------------

G ----------------------------------------------4--
D --5-5-4-4-2-2-0-0---------------------------2----
A ------------------3-3-2-2-0-0-0---2--2--2-2------
E --------------------------------3----------------