Bon Jovi-It's My Life

Intro
G|---------------|---------------|---------------|---------------|
D|---------------|---------------|---------------|---------------|
A|-3--3----------|---------------|-3--3----------|---------------|
E|---------------|---------------|---------------|---------------|

Verse
G|---------------|---------------|---------------|---------------|
D|---------------|---------------|---------------|---------------|
A|-3-------------|---------------|-3--3--3-----3-|-3--3------6-3-|
E|---------------|---------------|---------3-6---|-------6-3-----|

G|---------------|---------------|---------------|---------------|
D|---------------|---------------|---------------|---------------|
A|-3--3--3-----3-|-3--3------6-3-|-3--3--3-----3-|-3--3------6-3-|
E|---------3-6---|-------6-3-----|---------3-6---|-------6-3-----|

G|--------------|--------------|--------------|--------------|---|
D|--------------|--------------|--------------|--------------|---|
A|-3--3--3-3-3--|-3--3--3-3-3--|--------------|--------------|---|
E|--------------|--------------|-1--1--1-1-1--|-1--1--1-1-1--|---|

Chorus
G|-----------------|-----------------|-----------------|-----------------|
D|-------------3-5-|-----------------|-----------3-5-3-|-----------------|
A|-3-3-3-3-3-6-----|-----------1-3-1-|-6-6-6-6-6-------|-----------------|
E|-----------------|-4-4-4-4-4-------|-----------------|-6-6-6-6-6-6-8-6-|

G|-----------------|-----------------|-----------------|-----------------|
D|-------------3-5-|-----------------|-----------------|-----------------|
A|-3-3-3-3-3-6-----|-----------1-3-1-|-1-1-1-1-1-1-1-1-|-1-1-1-1-2-2-2-2-|
E|-----------------|-4-4-4-4-4-------|-----------------|-----------------|

Solo
G|-----------------|-----------------|-----------------|-----------------|
D|-----------------|-----------------|-----------------|-----------------|
A|-----------------|-----------------|-----------------|-----------------|
E|-4-4-4-4-4-4-4-4-|-4-4-4-4-4-4-4-4-|-6-6-6-6-6-6-6-6-|-6-6-6-6-6-6-6-6-|

G|-----------------|-----------------|-----------------|-----------------|
D|-----------------|-----------------|-----------------|-----------------|
A|-----------------|-----------------|-----------------|-----------------|
E|-4-4-4-4-4-4-4-4-|-4-4-4-4-4-4-4-4-|-1-1-1-1-1-1-1-1-|-1-1-1-1-1-1-1-1-|

Bridge
G|---|---|---|---|-------------|
D|---|---|---|---|-------------|
A|-3-|---|---|---|-3--3--------|
E|---|---|---|---|-------------|

Structure
Intro (2x) - Verse  - Chorus (2x) - Intro (2x) - Verse - Chorus (2x) -
Solo       - Bridge - Chorus (4x)