Dum Dums - All Hooked Up On You

Intro
G||-----------------|-----------------|-----------------|-------------------|
D||-16--------------|-----------------|-----------------|-------------------|
A||-----------------|-----------------|-14--------------|-----------14-16---|
E||-----------------|-----------------|-----------------|-------------------|

-15--------------|--------------15--|-13--------------|-----------------|
-----------------|------------------|-----------------|-----------------|
-----------------|------------------|-----------------|-----------------|
-----------------|------------------|-----------------|-----------------|

Verse
-----------------|-----------------|-----------------|-----------------|
-4---------------|-----------------|-----------------|-----------------|    x2
-----------------|-----------------|-2---------------|-----------------|
-----------------|-----------------|-----------------|-----------------|

-----------------|-----------------|-----------------|-----------------|
-----------------|-----------------|-----------------|-----------------|    x2
-----------------|-----------------|--2--------------|-----------------|
-2---------------|-----------------|-----------------|-----------------|

Bridge
-----------------|-----------------|-----------------|-----------------|
-----------------|-----------------|-----------------|-----------------|
-----------------|-----------------|-4---------------|-------------6---|
-4---------------|-----------------|-----------------|-----------------|

-----------------|-----------------|-----------------|-----------------|
-------(see fill 2nd time)---------|-----------------|-----------------|
-----------------|-----8---9---11--|-4---4---4---4---|-4---4---4---4---|
-4---------------|-----------------|-----------------|-----------------|

Chorus
-----------------|-----------------|-----------------|-----------------|
-----------------|-----------------|-----------------|-----------------|
-----------------|-----------------|-2---2---2---1-2-|---2---4---4-----|   x4
-2---2---2-2-2---|-2---2---2-2-2---|-----------2-----|-----------------|

Fill
-----------------|-----------------|
-----------------|-1---3---4---6---|
-----1---2---4---|-----------------|
-4---------------|-----------------|

Middle
-----------------|-----------------|-----------------|-----------------|
-----------------|-----------------|-----------------|-----------------|
-6---------------|-----------------|-----------------|-----------------|   x2
-----------------|-----------------|-7---------------|-----------------|

End on E|-4---------------|

http://www.sparkystabs.co.uk