Dum Dums - Army Of Two

   Intro              
G||-------------------
D||--5----------------
A||-------------------
E||-------------------

Verse
|--------------------|--------------------|--------------------|-------------------
|--5--------4--------|--2-----------------|--------------------|-------------------
|--------------------|-----------3--------|-----------5--------|--3----------------
|--------------------|--------------------|--3-----------------|-------------------

Verse Variation                                      
|--------------------|-----------5--------|-----------7--------|--5----------------|
|--5--------4--------|--2-----------------|--5-----------------|-------------------|
|--------------------|--------------------|--------------------|-------------------|
|--------------------|--------------------|--------------------|-------------------|
                                                        
Bridge    
-------------------|-------------------|-------------------|
-------------------|-------------------|-------------------|
-------------------|-------------------|-------------------|
--0----------------|--5----------------|--7----------------|
                                                                    
---------------------|-------------------|--------------------------|
---------------------|-------------------|--------------------------|
---------------0--2--|--3----------------|--3--3--3--3--5--5--5--5--|
--0------------------|-------------------|--------------------------|
      
Chorus                                                                      
------------------------|------------------------|-------------------------|
--5--5--5--5----5--5----|--4--4--4--4----4--4----|--2--2--2--2----2--------|
------------------------|------------------------|-------------------0--2--|
------------------------|------------------------|-------------------------|
                         Post-chorus  (bracketed notes 2nd time)                                       
------------------------|-------------------|-------------------|
------------------------|--5-------------5--|--4------------4---|
--3--3--3----5--5--5----|-------------------|-------------------|
------------------------|-(3-3-3-3-3-3-3-3)-|-(2-2-2-2-2-2-2-2)-|
                                          
------------------|--------------------|
--2---------------|--------------------|
------------------|--3(3-3-3)5(3-3-3-3)|
(0-0-0-0-0-0-0-0-)|--------------------|

Middle
------------------------|------------------------|------------------------|
------------------------|------------------------|------------------------|
--5----5----5--5--5-----|------------------------|--3----3----3--3-----3--|
---------------------0--|----0--0--2----2--3--3--|------------------3-----|
                                                                           
------------------------|------------------------|------------------------|
------------------------|------------------------|------------------------|
----3--3----3--3--3--3--|--5----5----5--5--5-----|------------------------|
------------------------|---------------------0--|----0--0--2----2--3--3--|
                                                                           
-----------------------|-------------------------|------------------------|
-----------------------|-------------------------|------------------------|
--3----3----------3----|--3--3--3--3--3----------|------------------2--3--|
----------3----3-------|-----------------3--2----|--0----0----0--3--------|
                                                                             
-------------------------|------------------------|-------------------------|
-------------------------|------------------------|-------------------------|
----3--3--3--3--3--------|------------------2--3--|----3--3--3--5--5--5--5--|
-------------------3--2--|--0----0----0--3--------|-------------------------|
                                                                           
------------------------|-------------------------|-----------------------|
------------------------|-------------------------|------------------2----|
------------------2--3--|----3--3--3--3--3--3--3--|--3----3--5----5-------|
--0----0----0--3--------|-------------------------|-----------------------|
                         
-----------------------|
--2--4----4--5----7----|
-----------------------|
-----------------------|

Ending
-----------------------|-----------------------|-------------------------|
--5----5----5--5--5----|--4----4----4--4--4----|--2----2--4--5-----------|
-----------------------|-----------------------|----------------5--5--4--|
-----------------------|-----------------------|-------------------------|
                                              
----------------------|---------------------||
----------------------|---------------------||
--3----3--------------|---------------------||
------------0----2----|--2----0----1--------||

http://www.sparkystabs.co.uk