Dum Dums-Can't Get You Out Of My Thoughts

Tuning
Eb A D G

Main Riff
G |--------------|-1--1--------|-------------|-------------|
D |--------1--4--|-------4--4--|-2--2--1--1--|-------------|
A |-2--2-2-------|-------------|-------------|-4--4--------|
Eb|--------------|-------------|-------------|-------3--3--|

Bridge
G |-------------|-------------|--------------|---------------|
D |-------------|-------------|--------------|---------------|
A |-------------|-------------|------------4-|------4--------|
Eb|-5--5--5--5--|-4--4--0--0--|-1--1--1--1---|---5------3----|

G |-------------|-------------|--------------|---------------|---------------|
D |-------------|-------------|--------------|---------------|---------------|
A |-------------|-------------|--------------|---------------|---------------|
Eb|-5--5--5--5--|-4--4--0--0--|-1--1--1--1-3-|--3-0-3--3-0-3-|--3-0-3-----3--|

Middle
G |-------------|-------------|-------------|--------------|-------------|
D |-------------|-------------|-------------|--------------|-------------|
A |-------------|-9-----------|-------------|--------------|-------------|
Eb|-10----------|-------------|-8-----7-----|-5---------8--|-10----------|
                                    
G |----------------|--------------|------------|-----------|---------|--------------------------|
D |-----8-9--8-----|--------------|------------|-----------|---------|--------------------------|
A |-9-----------9--|--------------|------------|-----------|---------|--------------------------|
Eb|----------------|-8-----6------|-3----------|-----------|---------|-15-15-15-15-15-15-15-----|

Outro
G |----------------|-1--1--------|---------------|---------------|
D |----------1--4--|-------4--4--|---------------|---------------|
A |-2--2--2--------|-------------|-7--7--7-6---7-|---6---7--6----|
Eb|----------------|-------------|-----------8---|-----8------8--|

  Play 3 times--------------------------------------------------->
G |---------------|--------------|---------------|---------------|
D |---------------|--------------|---------------|---------------|
A |---------------|--------------|-7--7--7-6---7-|---6---7--6----|
Eb|-5--5--5-5-5-6-|---6--6-6-6-6-|-----------8---|-----8------8--|

G |------------------------|----------|----------|
D |------------------------|----------|----------|
A |------------------------|----------|----------|
Eb|--5----5----5--5--5--6--|----------|----------|

http://www.sparkystabs.co.uk