Dum Dums - Closer To You

Rest til end of first verse

G|----------------------------|----------------------------|
D|----------------------------|----------------------------|
A|--3--3--3--3-3-5--5--5--5-5-|--2--2--2--2-2-3--3--3--3-3-|
E|----------------------------|----------------------------|

|----------------------|----------------------|
|----------------------|----------------------|   x3
|--3------5--5------2--|--2------3--3------3--|
|----------------------|----------------------|

|----------------------|------------------------|
|----------------------|------------------------|
|--3------5--5------2--|--2------3--3--2--0-----|
|----------------------|---------------------3--|

Chorus
|-------------------------|-------------------------|
|-------------------------|-------------------------|
|--3--3--3--5----5--5--5--|--2--2--2--3----3--3--3--|
|-------------------------|-------------------------|
                                                            x2
|-------------------------|-------------------------|
|-------------------------|-------------------------|
|--3--3--3--5----5--5--5--|--2--2--2--3----2--0-----|    
|-------------------------|----------------------3--|

Verse 3
|--------------------|--------------------|
|---------5----------|---------2----------|        x3
|--3-----------------|--2-----------------|
|--------------------|--------------------|

|----------------------------|----------------------------|
|----------------------------|----------------------------|
|--3--3--3--3-3-5--5--5--5-5-|--2--2--2--2-2-3--3--3--3-3-|
|----------------------------|----------------------------|

|----------------------|----------------------|
|----------------------|----------------------|   x4
|--3------5--5------2--|--2------3--3------3--|
|----------------------|----------------------|

Chorus x2

Middle
|------------------------|------------------------|
|------------------------|------------------------|
|------------------2--3--|----3--3----3--3--3--3--|
|--0----0----0--3--------|------------------------|
                                                   
|------------------------|------------------------|
|---------------------4--|----4--4----4--4--4--4--|
|------------------------|------------------------|
|--3----3----3--3--3-----|------------------------|

Verse 5
|----------12----------|---------9----------|
|--10------------------|--9-----------------|     x 5
|----------------------|--------------------|
|----------------------|--------------------|

|----------------------------|----------------------------|
|----------------------------|----------------------------|
|--3--3--3--3-3-5--5--5--5-5-|--2--2--2--2-2-3--3--3--3-3-|
|----------------------------|----------------------------|

Chorus  til end