Dum Dums - Everyday I Talk To God

Intro/Verse riff
   Am                    F
G|-----------4-5-5-5-5------------------------
D|-7-7-7---5-----------5-3-3-3-3-3------------
A|-------7-------------------------3-3-3-3-3-3
E|--------------------------------------------

Chorus
   C               G               F
G|-----------------------------------------------------------------
D|-----------------------------------------------------------------
A|-3-3-3-3-3-3-3-3-------------------------------------------------
E|-----------------3-3-3-3-3-3-3-3-1-1-1-1-1-1-1-1-1-1-1-1-1-1-1-1-

Middle
  C                                F
G|-----------------------------------------------------------------
D|-----------------------------------------------------------------
A|-3-3-3-3-3-3-3-3-3-3-3-3-3-3-3-3---------------------------------
E|---------------------------------1-1-1-1-1-1-1-1-1-1-1-1-1-1-1-1-

http://www.sparkystabs.co.uk