Dum Dums-Everything

Intro:                     
G|--------------------------------|
D|--------------------------------|
A|-----------------2--2--2--1--2--|           x3
E|-2-2---2-4-4--4-----------------|

G|----------------------------------|
D|----------------------------------|
A|-----------------2--1-------2-----|
E|-2-2---2-4-4--4--------4----------|

Verse:                      
G|----------------------------|
D|-4--------------------------|
A|----4---6-----------6--4----|          x4
E|-----------6--6-4-----------|

Chorus                 
G|------------------------------|
D|------------------------------|
A|-----------------2--2--2--1-2-|    x3
E|-2-2---2-4-4--4---------------|

G|---------------------------------|
D|-------------------------1-------|
A|-----------------2-1-------4-2---|
E|-2-2---2-4-4--4------4-----------|
                                 
Interlude   
G|--------------------------------|
D|--------------------------------|
A|-----------------2--2--2--1--2--|   x2
E|-2-2---2-4-4--4-----------------|

Verse

Chorus

Middle 8:
G|-------------------------------------------------|
D|-------------------------------------------------|
A|-5-------7---------------------4-5-------7-------|
E|---------------5-7-----------7-------------------|

G|---------------------------------|
D|---------------------------------|
A|---------------------------------|
E|-3-3-3-3-3-3-3-3-3-3-3-3-3-3-3-3-|

Interlude

Chorus
G|------------------------------|
D|------------------------------|
A|-----------------2--2--2--1-2-|    x7
E|-2-2---2-4-4--4---------------|

G|---------------------|
D|---------------------|
A|-----------------2---|    
E|-2-2---2-4-4--4------|

http://www.sparkystabs.co.uk