Dum Dums - Lonely Hearts Company

Intro/Verse
G||-----------------|------------------|-----------------|-----------------|
D||-----------------|------------------|-----------------|-----------------|
A||-----------------|-2-------3--------|-----------------|-2-------3-------|
E||-3---0-3-5---3-5-|------------------|-3---0-3-5---3-5-|-----------------|

-----------------|-----------------|-----------------|-----------------|
-----------------|-----------------|-----------------|-----------------|
-----------------|-2-------1-------|-0---2---3---4---|---7---5---------|
-3---0-3-5---3-5-|-----------------|-----------------|-----------------|

Bridge
-----------------|-----------------|-----------------|-----------------|
-----------------|-----------------|-----------------|-----------------|
-3-------2-------|-----------------|-3-------2-------|-----------------|
-----------------|-2-------3-0-3---|-----------------|-2-------3-0-3---|

-----------------|-----------------|-----------------|-----------------|
-----------------|-----------------|-----------------|-4-5-4-5---------|
-3-------2-------|-----------------|-3-------2-------|-----------0-2---|
-----------------|-2-------3-0-3---|-----------------|-----------------|

Chorus
-----------------|-----------------|-----------------|-----------------|
-----------------|-----------------|-----------------|-4---------------|
-3-------2-------|-----------------|-3-------2-------|-----------------|
-----------------|-2-------3-0-3---|-----------------|---------3-0-3---|

-----------------|-----------------|-----------------|-----------------|
-----------------|-----------------|-----------------|-----------------|
-3-------2-------|-----------------|-3-------2-------|-----------------|
-----------------|-2-------3-0-3---|-----------------|-2-------3-------|

Middle
-----------------|-----------------|
-----------------|-----------------|
---------0-------|-2-------3-------|
-3---------------|-----------------|

http://www.sparkystabs.co.uk