Dum Dums-Photographs

Intro
G|-----------------|-----------------|
D|-----------------|-----------------|
A|-----------1---3-|-----------4---6-|     x4
E|-4---4---4-------|-1---1---1-------|

Verse
-----------------|-----------------|-----------------|-----------------|
-----------------|-----------------|-----6-----------|-3---3-----------|
-----------1---3-|-----------4---6-|-----------1---3-|-----------4---6-|   x2
-4---------------|-1---------------|-4---------------|-----------------|

-----------------|-----------------|
-----------------|-----------------|
--4--------------|---------4\------|
-----------------|-----------------|

Chorus
-----------------|-----------------|-----------------|-----------------|
-----------------|-----------------|-----------------|-----------------|
-4---4---4-4-4-4-|-3---3---3-3-3-3-|-6---6---6-6-6-6/|-4---4---4-4-4-3-|
-----------------|-----------------|--------6--------|--------4--------|

-----------------|-----------------|-----------------|-----------------|
-----------------|-----------------|-----------------|-----------------|
-4---4---4-4-4-4-|-3---3---3-3-3/8-|-6---6---6-6-6-6/|-4---4---4-4-4-3-|
-----------------|-----------------|--------6--------|--------4--------|

Middle
-----------------|-----------------|-----------------|-----------------|
-----------------|-----------------|-----------------|-----------------|
-----------------|-6---6---6-6-6---|-4---4---4-4-4---|-4---4---4-4-3---|
-1---1---1-1-1---|--------6--------|--------4--------|--------4--------|

-----------------|-----------------|-----------------|-----------------|
-----------------|-----------------|-----------------|-----------------|
-----------------|-6---6---6-6-6---|-4---hold--------|-4-stop----------|
-1---1---1-1-1---|--------6--------|-----------------|-----------------|

Outro
-----------------|-----------------|-----------------|-----------------|
-----------------|-----------------|-----------------|-----------------|
-----------1---3-|-----------4---6-|-----------1---3-|-4---------------|
-4---4---4-------|-1---1---1-------|-4---4---4-------|-----------------|

http://www.sparkystabs.co.uk