Dum Dums-The Kind Of Day I've Had

Riff 1
G|-----------------|-----------------|
D|-----------------|-----------------|
A|-----------------|-----------------|
E|-1-1-1/8-8---8-0-|-1-1-1/6-6---6-0-|

Riff 2
G|-----------------|-----------------|-----------------|-----------------|
D|-----------------|-----------------|-----------------|-----------------|
A|-8-8-8-8-7-7-7-7-|-5-5-5-5---------|-4-4-4-4-4-4-4-4-|-4---------------|
E|-----------------|---------6-6-6-6-|-----------------|---4-4-4-4-6-6-0-|

Intro
4 bars rest

G|-----------------|-----------------|-----------------|-----------------|-----------------|
D|-----------------|-----------------|-----------------|-----------------|-----------------|
A|-----------------|-----------------|-----------------|-----------------|-----------------|
E|--------------0--|-1-1-----------0-|-1-1-----------0-|-1-1-----------0-|-1-1----------6\-|

Riff 1 x2

Riff 2

Verse 1
Riff 1 x8

Chorus
Riff 1 x 2
Riff 2

Verse 2
2 bars rest
Riff 1 x7

Chorus x2

Middle
4 bars rest

G|-----------------|-----------------|-----------------|-----------------|-----------------|
D|-----------------|-----------------|-----------------|-----------------|-----------------|
A|-----------------|-----------------|-----------------|-----------------|-----------------|
E|--------------0--|-1-1-----------0-|-1-1-----------0-|-1-1-----------0-|-1-1-1---------0-|

G|-----------------|
D|-----------------|
A|-----------------|
E|-1-1-1-1-1-1-1-1-| x4

G|-------------------------|
D|-------------------------|
A|-------------------------|
E|-13-13-13-13-13-13-13-12-| x3

G|-------------------------|
D|-------------------------|
A|-------------------------|
E|-13-------------------13\|

Chorus x2

Outro
G|-----------------|-----------------|      G|-----------------|-----------------|
D|-----------------|-----------------|      D|-----------------|-----------------|
A|-----------------|-----------------|      A|-----------------|-----------------|
E|-1-1-1-1-0-0-0-0-|-6-6-6-6-6-6-6-6-| x3   E|-5-5-5-5-5-5-5-5-|-6-6-6-6-6-6-6-6-|

Play that twice. End on E|-1------------ and hold.

http://www.sparkystabs.co.uk