Dum Dums - Travelling At Speed

Intro
G||--7--7--7--7--7--7--7--7--|--------------------------|--10--10--10--10--10--10--10--10--|
D||--------------------------|--8--8--8--8--8--8--8--8--|----------------------------------|
A||--------------------------|--------------------------|----------------------------------|
E||--------------------------|--------------------------|----------------------------------|
                                                                                 
--9--9--9--9--9--9--9--9--|--7--7--7--7--7--7--7--7--|--------------------------|
--------------------------|--------------------------|--8--8--8--8--8--8--8--8--|
--------------------------|--------------------------|--------------------------|
--------------------------|--------------------------|--------------------------|
                                                       
--------------------------|--------------------------|
--------------------------|--------------------------|
--------------------------|--------------------------|
--1--1--1--1--1--1--1--1--|--0--0--0--0--0--0--0--0--|

Verse
--------------------------|--------------------------|
--------------------------|--------------------------|
--5--5--5--5--5--5--5--5--|--------------------------|
--------------------------|--6--6--6--6--6--6--5--5--|
                                                               x4 
--------------------------|--------------------------|
--------------------------|--------------------------|
--------------------------|--------------------------|
--3--3--3--3--3--3--3--3--|--8--8--8--8--6--6--5--5--|

Bridge (bracketed notes 2nd time)
--------------------------|----------------------------------|
--------------------------|----------------------------------|
--5--5--5--5--5--5--5--5--|--10--10--10--10--10--10--10--10--|
--------------------------|--(3)-(3)-(3)-(3)-(3)-(3)-(3)-(3)-|
                                                      
--------------------------|--------------------------|
--------------------------|--------------------------|
--------------------------|--8--8--8--8--7--7--7--7--|
--8--8--8--8--8--8--8--8--|--------------------------|
                                                      
--------------------------|--------------------------|
--------------------------|--------------------------|
--5--5--5--5--5--5--5--5--|--------------------------|
--------------------------|--3--3--3--3--3--3--3--3--|
                                                      
--------------------------|--------------------------|
--------------------------|--------------------------|
--3--3--3--3--3--3--3--3--|--8--8--8--8--7--7--7--7--|
--------------------------|--------------------------|
                                                     
--------------------------|--------------------------|
--------------------------|--------------------------|
--5--5--5--5--5--5--5--5--|--------------------------|
--------------------------|--3--3--3--3--3--3--3--3--|
                                                           x2
--------------------------|--------------------------|
--------------------------|--------------------------|
--3--3--3--3--3--3--3--3--|--------------------------|
--------------------------|--1--1--1--1--0--0--0--0--|

Chorus
--------------------------|--------------------------|
--------------------------|--------------------------|
--5--5--5--5--5--5--5--5--|--------------------------|
--------------------------|--6--6--6--6--6--6--5--5--|
                                                               x2 
--------------------------|--------------------------|
--------------------------|--------------------------|
--------------------------|--------------------------|
--3--3--3--3--3--3--3--3--|--8--8--8--8--6--6--5--5--|

Repeat all

Chorus

Middle
--------------------------|----------------------------------|
--------------------------|----------------------------------|
--5--5--5--5--5--5--5--5--|--10--10--10--10--10--10--10--10--|
--------------------------|----------------------------------|
                                                                    x4
--------------------------|--------------------------|
--------------------------|--------------------------|
--8--8--8--8--8--8--8--8--|--7--7--7--7--7--7--7--7--|
--------------------------|--------------------------|

Solo
--------------------------|--------------------------|--------------------------|
--------------------------|--------------------------|--------------------------|
--5--5--5--5--5--5--5--5--|--------------------------|--3--3--3--3--3--3--3--3--|
--------------------------|--3--3--3--3--3--3--3--3--|--------------------------|
                                                                                
--------------------------|--------------------------|--------------------------|
--------------------------|--------------------------|--------------------------|
--8--8--8--8--7--7--7--7--|--5--5--5--5--5--5--5--5--|--------------------------|
--------------------------|--------------------------|--3--3--3--3--3--3--3--3--|
                                                                                 
--------------------------|--------------------------|--------------------------|
--------------------------|--------------------------|--------------------------|
--3--3--3--3--3--3--3--3--|--8--8--8--8--7--7--7--7--|--5--5--5--5--5--5--5--5--|
--------------------------|--------------------------|--------------------------|
                                                                                         
----------------------------------|--------------------------|--------------------------|
----------------------------------|--------------------------|--8--8--8--8--8--8--8--8--|
--10--10--10--10--10--10--10--10--|--8--8--8--8--8--8--8--8--|--------------------------|
----------------------------------|--------------------------|--------------------------|
                                                                                         
--------------------------|----------------------------------|--------------------------|
--------------------------|----------------------------------|--------------------------|
--5--5--5--5--5--5--5--5--|--10--10--10--10--10--10--10--10--|--8--8--8--8--8--8--8--8--|
--------------------------|----------------------------------|--------------------------|
                            
--------------------------|
--8--8--8--8--8--8--------|
--------------------8--7--|
--------------------------|

Chorus x2

End on    A|-5--------