Dum Dums - Until My Ship Comes In

No bass until after 2nd chorus

Middle
G|-----------------|-----------------|-----------------|-----------------|
D|-----------------|-----------------|-----------------|-----------------|
A|-----------4---4-|-----------4---4-|-----------4---4-|-1-1-3-3-4-4-6-6-|    x2
E|-1---1---1-------|-1---1---1-------|-1---1---1-------|-----------------|

Chorus
------------------|------------------|------------------|-------------------|
------------------|------------------|------------------|-------------------|
------------------|------------------|-2-2-2-2-2-4--4-4-|-----------4---4---|    x3
-4---4---4-4--4---|-2-2-2---2-2--2---|------------------|-4-4-4---4---------|

-------------------|
-------------------|
-------------------|
--4----------------|

http://www.sparkystabs.co.uk