Dum Dums-You Do Something To Me

Tune to Eb A D G

Intro
-----------------|-----------------|-----------------|-----------------|
-8---7---5-------|-----------------|-8---7---5-------|-----------------|
-------------8---|-6---6-6-8-8-8-8-|-------------8---|-6---6-6-8-8-8-8-|
-----------------|-----------------|-----------------|-----------------|

-----------------|-----------------|-----------------|-----------------|
-----------------|-----------------|-----------------|-----------------|
-------------5---|-6---6-6-8-8-8-8-|-------------5---|-6---6-6-888-888-|
-4---6---7-------|-----------------|-4---6---7-------|-----------------|

Verse                                                                              
-----------------|-----------------|-----------------|-----------------|
-----------------|-----------------|-----------------|-----------------|
-------------8---|-6---6---8---8---|-------------8---|-6---6---8---8---|
-7----7--7-------|-----------------|-7----7--7-------|-----------------|

-----------------|-----------------|-----------------|-----------------|
-----------------|-----------------|-----------------|-----------------|
-------------8---|-6---6---8---8---|-------------5---|-6---6---8---8---|
-4----4--4-------|-----------------|-4---6---7-------|-----------------|               

Bridge                                                       
-----------------|-----------------|-----------------|-----------------|
-----------------|-----------------|-----------------|-----------------|
-3----3----------|-6-----6---------|-----------------|-----------------|
-----------------|-----------------|-7-7-7-7-7-7-6-6-|-7-7-6-6-7-7-8-8-|

-----------------|-----------------|-----------------|-----------------|
-----------------|-----------------|-----------------|-3-3---3---3-----|
-3----3----------|-6-----6---------|-----------------|-----------------|
-----------------|-----------------|-2---2---2-2-2-2-|-----2-------2---|

Chorus
-----------------|-----------------|-----------------|-----------------|
-----------------|-----------------|-----------------|-----------------|
-------------5---|-6---6---8---8---|-------------5---|-6---6---8---8---|
-4---4---4-------|-----------------|-4---4---4-------|-----------------| 

-----------------|-----------------|-----------------|-----------------|
-----------------|-----------------|-----------------|-----------------|
-------------5---|-6---6---8---8---|-6----6----------|-6---6---8---8---|
-4---4---7-------|-----------------|-----------------|-----------------|
                                                                                 
Bridge
-----------------|-----------------|-----------------|-----------------|
-----------------|-----------------|-----------------|-----------------|
-----------------|-----------------|-6-6-5-6---6-5-6-|---6-5-6---6-5---|  x3
-2---2---2-2-2---|-4---4---4-4-4---|-----------------|-----------------|

-----------------|-----------------|-----------------|-----------------|
-----------------|-----------------|-----------------|-----------------|
-----------------|-----------------|-----------------|-----------------|
-2---2---2-2-2---|-4---4---4-4-4---|--0--------------|-----------------|

Outro
-----------------|-----------------|-----------------|-----------------|
-8---7---5-------|-----------------|-8---7---5-------|-----------------|
-------------8---|-6---6-6-8-8-8-8-|-------------8---|-6---6-6-8-8-8-8-|   x3
-----------------|-----------------|-----------------|-----------------|

-----------------|-----------------|------------------|-----------------|------|
-8---7---5-------|-----------------|------------------|-----------------|------|
-------------8---|-6---6-6-8-8-8-8-|-------------5----|-6---6-6-888-888-|------|
-----------------|-----------------|-4---6---7--------|-----------------|--7---|

http://www.sparkystabs.co.uk