Dum Dums-You Knock Me Off My Feet

Riff 1
G|-----------------|-----------------|-----------------|-----------------|
D|-----------------|-----------------|-----------------|-----------------|
A|---2-2-----------|---------------2-|---2-2-----------|---------------2-|
E|-------2-2---2-4-|-4---4-0-0-2-4---|-------2-2---2-4-|-4---4-0-0-2-4---|

G|-----------------|-----------------|-----------------|-----------------|
D|-----------------|-----------------|-----------------|-----------------|
A|---2-2-----------|---------------2-|---2-2-----------|-----------------|
E|-------2-2---2-4-|-4---4-0-0-2-4---|-------2-2---2-4-|-4---4-4-4-2-1-0-|

Riff 2
G|-----------------|-----------------|
D|-----------------|-----------------|
A|-----------------|---------------2-|
E|---0-0-0-0---0-0-|-0-0-0-0-0-2-4---|

Intro
3 bars rest
  <-Only in intro->
G|-----------------|-----------------|-----------------|-----------------|
D|-----------------|-----------------|-----------------|-----------------|
A|---------------2-|---2-2-----------|---------------2-|---2-2-----------|
E|-----------------|-------2-2---2-4-|-4---4-0-0-2-4---|-------2-2---2-4-|

G|-----------------|-----------------|-----------------|
D|-----------------|-----------------|-----------------|
A|---------------2-|---2-2-----------|-----------------|
E|-4---4-0-0-2-4---|-------2-2---2-4-|-4---4-4-4-2-1-0-|

Riff 2

Verse
Riff 1

Bridge
G|-----------------|-----------------|-----------------|-----------------|
D|-----------------|-----------------|-----------------|-----------------|
A|-----------------|-----------------|-----------------|---------------2-|
E|-0---0-0-2---2-2-|-0---0-0-2---2-2-|-0---0-0-2---2-2-|-0---0-0-0-2-4---|

Chorus play intro

Verse

Bridge

Chorus

Middle
G|-----------------|-----------------|
D|-----------------|-----------------|
A|---------7-7-6-4-|-2---2-2---------|
E|-0-0-0-0---------|---------2---2-2-| x4

G|-----------------|-----------------|
D|-----------------|-----------------|
A|-7-7-7-7-7-7-6-4-|-2-2-2-2/9-9-9-9-|
E|-----------------|-----------------| x3

G|-----------------|-----------------|
D|-----------------|-----------------|
A|-7-7-7-7-7-7-----|---------------2-|
E|-------------7-0-|-0-0-0-0-0-2-4---|

Chorus x2

Outro
Chorus x3

http://www.sparkystabs.co.uk