Dum Dums - You Want It You Got It

Intro
G|----------------------|------------------|--------------------------|------------------|
D|----------------7--9--|------------------|--------------11--12------|------------------|
A|--5----------9--------|------------------|--12------------------10--|------------------|
E|----------------------|------------------|--------------------------|------------------|
                                                                                              
------------------------|---------------------|------------------------|---------------------|
------------------------|---------------------|------------------------|-----------5----4----|
--5----5----5--------2--|------2----2----2----|---------------4--5-----|--------5------------|
---------------2--5-----|---------------------|--5----5----5--------3--|---------------------|

Verse                                                                                                 
------------------------|------------------------|-----------------------|----------------------|
----------------4--7----|-------------9----7--9--|-----------------------|----------------------|
--5----5--5--7----------|------------------------|-----------------------|-----------------4----|
------------------------|--7----7--7-------------|--5----5----5--5--5----|--3----3----5---------|
                                                                                                         
------------------------|------------------------|-----------------------|----------------------|
----------------4--7----|-------------9----7--9--|-----------------------|----------------------|
--5----5--5--7----------|------------------------|-----------------------|----------------------|
------------------------|--7----7--7-------------|--5----5----5--5--5----|--3----3----2----2----|

Bridge
-----------------------|------------------------|------------------------|----------------------|
-----------------------|------------------------|------------------------|----------------------|
-----------------------|------------------------|------------------------|--0-------------------|
--0----0--0--0----0----|--2----2--2--2----2--2--|--3----3--3--3----3--3--|-------3----2----3----|
                                                                                                   
------------------------|------------------------|------------------------|-----------------------|
------------------------|------------------------|------------------------|-----------------------|
------------------------|------------------------|------------------------|------------------4----|
--0----0--0--0----0--0--|--2----2--2--2----2--2--|--3----3--3--3----3--3--|--5----5--5--5---------|

Chorus
-----------------------|------------------------|-----------------------|----------------------|
-----------------------|------------------------|-----------------------|----------------------|
--5----5----5----------|------------------------|-----------------------|-----------------4----|   x2
---------------0--5/---|--2----2----2--2--0--2--|--3----3--0--3----2----|--0----3----5---------|

Post-chorus
------------------------|---------------------|---------------------------|-------------------------|
------------------7--9--|------9----9----9----|---------------11--12------|-------------------------|
--5----5----5--9--------|---------------------|--0----0----0----------10--|------10------10----9----|
------------------------|---------------------|---------------------------|----------10-------------|
                                                                                               
-----------------------|----------------------|-----------------------|-----------------------|
-----------------------|----------------------|-----------------------|-----------------------|
--7----7----7----7--7--|--9----9----9----9----|-----------------------|------------------4----|
-----------------------|----------------------|--3----3----3----3--3--|--5----5----5--5-------|

Verse

Bridge

Chorus x2

Middle
-------------------|-------------------|--------------------|-------------------------|-------------------|
-------------------|-------------------|--------------------|-------------------------|-------------------|
--7----------------|--9----------------|--10----------------|--12----10----9----------|--7----------------|
-------------------|-------------------|--------------------|-------------------10----|-------------------|
                                                                                       
-------------------|--------------------|----------------------|-----------------------|
-------------------|--------------------|----------------------|-----------------------|
-------------------|--10----------------|----------------------|-----------------------|
--2----------------|--------------------|--5----3----2----3----|--0----0----0--0--0----|
                                                                                                
-----------------------|-----------------------|-----------------------|-----------------------|
-----------------------|-----------------------|-----------------------|-----------------------|
-----------------------|-----------------------|-----------------------|-----------------------|
--2----2----2--2--2----|--3----3----3--3--3----|--5----5----5--5--5----|--0----0----0--0--0----|
                                                                    
-----------------------|-----------------------|-------------------|
-----------------------|-----------------------|-------------------|
-----------------------|-----------------------|-------------------|
--2----2----2--2--2----|--3----3----3--3--3----|--5----------------|

Chorus til end

http://www.sparkystabs.co.uk