Foo Fighters-Breakout

Standard Tuning

Guitar, Vocals, Drums, finally, Bass

G-------------------------------------------------------------------------
D-------------------------------------------------------------------------
A-------------------------------------------------------------------------
E-7-7-7-7-3-3-3-3-7-7-7-7-0-0-0-0-3-3-3-3-5-0-0-0-0-5-3-3-3-3-5-0-0-0-0-5-

  Play once  than...
G-------------------------------------------------------------------------
D-------------------------------------------------------------------------
A-------------------------------------------------------------------------
E-7-7-7-7-3-3-3-3-7-7/15\987654-0-3-3-3-5-0-0-0-0-5-3-3-3-3-5-0-0-0-0-5-

G------------------------------------------------
D------------------------------------------------
A------------------------------------------------
E-7-7-7-7-7-7-7-7-7-7-9-0-0-0-0-0--0-0-0-0-

G--------------------------------------------------------
D--------------------------------------------------------
A--------------------------------------------------------
E-7-7-7-7-7-7-7-7-7-7-9-11-12-9-12-11-10-9-8-7-6-

G----------------
D----------------
A-2-5-7-5-4--3- Play an open A before the B, after the first time
E-----------------

G------------------------------------
D------------------------------------
A------------------------------------
E-7-7-7-7-0-0-0-0-9-9-9-9-8-8---

G----------------------------
---------------------------------
D----------------------------
---------------------------------
A-2-2-0-0-4-4/9-8-7-6-5-4  sometimes its -2-2-0-0-4-4/7-9-9-11-11-13-
E----------------------------
---------------------------------

G-----------------
D-----------------  Nate's little fill, you can hear
A-----------------  it quite clearly near the end.
E-9-8-7-6-5-4-0-

G--------------------
D--------------------
A-2-2-0-0-4-4-7-7-
E--------------------