Green Day-Minority

Standard Tuning
 
Intro: Guitar
 
Chorus
     C         F         G         F
   4x                              
G||----------|---------|---------|----------||
D||*---------|---------|---------|---------*||
A||*-3-3-3-3-|---------|---------|---------*||
E||----------|-1-1-1-1-|-3-3-3-3-|-1-1-1-1--||
 
Verse
   C        G        F        C        C        G        F        G
G:|-----------------|-----------------|-----------------|-----------------|
D:|-----2-----------|-3-3-2-0---------|-----2-----------|-----------------|
A:|-3-3---------2---|---------3-3-2-0-|-3-3---------2-0-|-------------0-2-|
E:|---------3-3---3-|-----------------|---------3-3-----|-1-1-0-1-3-3-----|
 
  C        G        F        C        C        F        G        C   
G:|-----------------|-----------------|-----------------|-----------------|
D:|-----2-----------|-3-3-2-0---------|-----2---3---2---|-----------------|
A:|-3-3---------2---|---------3-3-2-0-|-3-----3---------|-----2---3--2----|
E:|---------3-3-----|-----------------|-----------------|-3-3---3---------| 

Chorus 

Bridge
   A               E   F        C
G:|------------------|------------------|
D:|------------------|------------------|
A:|----------------7-|-8-8-8-8----------|
E:|-5-5-5-5-5-5-5----|----------8-8-8-8-|

    A              E   F        G
G:|------------------|------------------|
D:|------------------|------------------|
A:|------------------|------------------|
E:|-5-5-5-5-5-5-5--0-|-1-1-1-1--3-3-3-3-| 

   A               E   F        C
G:|------------------|------------------|
D:|------------------|------------------|
A:|----------------7-|-8-8-8-8----------|
E:|-5-5-5-5-5-5-5----|----------8-8-8-8-|
 
    A              F   G                                                     
G:|------------------|-------------------------------------|   
D:|------------------|-------------------------------5-----|   
A:|------------------|-------------------------3h5-5-----2-|   
E:|-5-5-5-5-5-5-5--1-|-3-3-x-x-x-3-3-x-x-x-3-3-------------|

Chorus
Verse
Chorus
Bridge
Verse 
(Repeat first 4 bars of verse)
Chorus x2 
Ends with just guitar.

http://www.sparkystabs.co.uk