Pretty Fly (for a white guy) - The Offspring   

Main Riff: 
||-------------------------------------|| 
||-------------------------------------|| 
||-------------------------------------|| 
||---7---7-7--2--5--7---7--7--/12--10--|| 

 Pre-chorus: 
||---------------------------------------|| 
||---------------------------------------|| 
||-----------8/9--8/9----------8/9--8/9--|| 
||---7--7-7-------------7--7-7-----------||  

||--------------------------|-----------------------------|| 
||--------------------------|-----------------------------|| 
||--5--5-5---5-7-7-7-5-7----|--5--5-5---5-7-7-7-5-7-8-7-5-|| 
||---------5-------------5--|---------5-------------------|| 

||--------------------------|| 
||--------------------------|| 
||--5--5-5---5-7-7-7-5-7----|| 
||---------5-------------5--|| 

Chorus: 
||--------------------------------------|------------------|| 
||--------------------------------------|------------------|| 
||-10--10-10----10---12-12-12----12--12-|----9-8-7---5-7---|| 
||-----------10---------------12--------|--7-------7-----7-||  

Bridge: 
||------------------------------------|------------------------------------|| 
||--------------------------9---------|-------------------------4----------|| 
||------------------------------7-5---|-----------------------------7-5----|| 
||---7-----5-7----5-7--5/7----7-------|---7----5-7----5-7---5/7---7-----7-5||