Red Hot Chili Peppers-Californication

Intro/Verse riff
G|-----9--9--7h9p7----|-------------------|-------9--9--7h9p7----|-----10--10--7--|
D|-7---------------10-|------12---12--10--|-7--7--------------10-|----------------|
A|--------------------|-8-----------------|----------------------|-8--------------|
E|--------------------|-------------------|----------------------|----------------|

End verse
G|-------------------------|------------------------|
D|-------------------------|------------------------|
A|--3----3--3--------------|--------------5----5----|
E|-------------3--3--3--3--|--1--1--1h-3------------|

Bridge riff
G|-------------------|------------------------|
D|-7--7-7-7-7-7-9-10-|--------------10--9-----|
A|-------------------|-8--8--8-8--8--------10-|
E|-------------------|------------------------|

Chorus
G|----------------------|----------------------|
D|----------------------|----------------------|
A|--3----3--------------|--5----5--------------|
E|------------3----3----|------------5----5----|

Solo 
G|-----14--13--11----------------|
D|-------------------------------|    x2
A|--9----9----9----9---5--5--5-5-|
E|-------------------------------|
 
G|------------7------------|
D|------9---7------7-----2-|
A|----9---5------7-----2---|    x2
E|--7----------5-----0-----|
 
G|-----14--13--11----------------|
D|-------------------------------|
A|--9----9----9----9---5--5--5-5-|    x2
E|-------------------------------|

G|------------7------------|
D|------9---7------7-----2-|
A|----9---5------7-----2---|    x3
E|--7----------5-----0-----|