Skunk Anansie-I Can Dream

Bass tab!

Intro :
G |---------------|
D |-11-9-11-------|
A |---------12-11-|
E |---------------|

Riff 1 :
G |-----------------------------------------------|
D |-----11------11-------11-------11--------------|
A |-9-9----9-11----11-12----11-12----12-14-12-11--|
E |-----------------------------------------------|

Bridge 1 :
G |----------------------------------|
D |----------------------------------|
A |-9-9-9-10-10-10-12-12-12-14-14-14-|
E |----------------------------------|

Riff 2 :
G |--------------------------------------------------------------------|
D |-------------------------------12-12-12-12-12-12--------------------|
A |-9-9-9-9-9-9-11-11-11-11-11-11--------------------------------------|
E |-------------------------------------------------12-12-12-12-12-12--|

Bridge 2 :
G |----------------------------------|
D |----------------------------------|
A |-9-9-9-10-10-10-11-11-11-12-12-12-|
E |----------------------------------|