Terrorvision-Alice What's The Matter? by 

Intro...
(5 Quiet Bars)

   h  q  q
|--r--------|
|--e--------|
|--s--1--3--|
|--t--------|

(1)
   q  e  e  e  e  e  e     e  e  e  e  e  e  e  e
|-----------------------|--------------------------|
|-----------------------|--------------------0--2--|
|--2--2--2--0--0--0--0--|--------------0--2--------|
|-----------------------|--3--3--3--3--------------|

(2)
   q  e  e  e  e  e  e     e  e  e  e  e  e  e  e
|-----------------------|--------------------------|
|-----------------------|-----------9--------0--2--|
|--2--2--2--5--5--5--5--|--7--7--7-----0--2--------|
|-----------------------|--------------------------|


(3)
   q  e  e  e  e  e  e     e  e  e  e  e  e  e  e
|-----------------------|--------4--4--4-----4--4--|
|-----------------------|--------------------------|
|--------------------2--|--2--2-----------2--------|
|--0--0--0--3--3--0-----|--------------------------|

(4)
   q  e  e  e  e  e  e     e  e  e  e  e  e  e  e
|-----------------------|--------4--4--4-----4--2--|
|-----------------------|--------------------------|
|--------------------2--|--2--2-----------2--------|
|--0--0--0--3--3--0-----|--------------------------|

(5)
|------------------2nd Time Only----------------------|
|                                                     |
   e  e  q  h     e  e  q  h     e  e  q  h     e  e  q  q  q

|--------r--r--|--------r--r--|--------r--r--|--------r--------|
|--------e--e--|--------e--e--|--------e--e--|--------e--------|
|--5--5--s--s--|--5--5--s--s--|--5--5--s--s--|--5--5--s--1--3--|
|--------t--t--|--------t--t--|--------t--t--|--------t--------|

(6)

   e  e  e  e  e  e  e  e     e  e  e  e  e  e  e  e     e  e  e  e  e  e  e
 e
|--------------------------|--------------------------|--------------------------|
|--------------------------|--------------------------|--------------------------|
|--5--5--5--5--5--5--5--5--|--5--5--5--5--5--5--5--5--|--5--5--5--5--5--5--5--5--|
|--------------------------|--------------------------|--------------------------|

(7 - 1st time round)       (7 - 2nd time round)
                               e  e  q  q  q
|--------------------|     |--------r--------|
|--------------------|     |--------e--------|
|--5--5--5-----1--3--|     |--5--5--s--1--3--|
|-----------0--------|     |--------t--------|


(8)
   q  e  e  e  e  e  e     e  e  e  e  e  e  e  e
|-----------------------|--------------------------|
|-----------------------|--------------------------|
|--2--2--2--5--5--5--5--|--7--7--7-----------5--0--|
|-----------------------|-----------0--5--7--------|

(9)
   e  e  q  q  q     w     q  q  q  q     w     e  e  q  q  q     w

|-----r--------r--|--r--|-----------r--|--r--|-----r--------r--|--r--|
|-----e--------e--|--e--|-----------e--|--e--|-----e--------e--|--e--|
|--7--s--7-----s--|--s--|-----------s--|--s--|--7--s--7-----s--|--s--|
|-----t-----3--t--|--t--|--0--0--3--t--|--t--|-----t-----3--t--|--t--|

   q  q  q  q     h  e  e  e  e

|-----------r--|--r--------------|
|-----------e--|--e--------0--2--|
|-----------s--|--s--0--2--------|
|--0--0--3--t--|--t--------------|

(10)
   e  e  q  h     e  e  q  h     e  e  q  h     e  e  q  q  q

|--------r--r--|--------r--r--|--------r--r--|--------r--------|
|--------e--e--|--------e--e--|--------e--e--|--------e--------|
|--5--5--s--s--|--5--5--s--s--|--5--5--s--s--|--5--5--s--1--3--|
|--------t--t--|--------t--t--|--------t--t--|--------t--------|

(11)
   e  e  q  h     e  e  q  h     q  e  e  e  e  q     w
|--------r--r--|--------r--r--|--------------r--|--r--|
|--------e--e--|--------e--e--|--------------e--|--e--|
|--5--5--s--s--|--5--5--s--s--|--5--5--5--6--s--|--s--|
|--------t--t--|--------t--t--|--------------t--|--t--|