Terrorvision-Oblivion

Intro...

   e  e  e  e  e  e  e  e     e  e  e  e  e  e  e  e     e  e  e  e  e  e  e  e
|--------------------------|--------------------------|--------------------------|
|--------------------------|--------------------------|--------------------------|
|--------------------------|--------------------------|--------------------------|
|--2--2--2--2--2--2--2--2--|--2--2--2--2--2--2--2--0--|--2--2--2--2--2--2--2--2--|

   e  e  e  e  e  e  e  e     q  e  e e  e  e  e     q  e  e e  e  e  e
|--------------------------|----------------------|----------------------|
|--------------------------|--------1h2--2--2--1--|--------1h2--2--2--1--|
|--------------------------|--2--2----------------|--2--2----------------|
|--2--2--2--2--2--2--2--2--|----------------------|----------------------|

   q  e  e e  e  e  e     e  e  e  e  e  e  e  e
|----------------------|-----------------r--r----||
|--------1h2--2--2-----|-----------------e--e----||
|--2--2-------------0--|-----------------s--s--1h||
|----------------------|--2--2--2--2--2--t--t----||

(1)
   s  e  e  e e  e  e  e    e  e  e  e e  e  e  e    e  e  e  e e  e  e  q
|------------h------r----|------------h------r----|------------h------r-----|
|-----------1-2--2--e----|-----------1-2--2--e----|-----------1-2--2--e--2--|
|--2--2--2----------s--1h|--2--2--2----------s--1h|--2--2--2----------s-----|
|-------------------t----|-------------------t----|-------------------t-----|

   e  e  e  e  q  e  e    q  e  e e  e  e  e    e  e  e  e e  e  e  e
|-----r-----r--r--r---h|---------h------r---h|------------h------r---h|
|-----e-----e--e--e----|--------1-2--2--e----|-----------1-2--2--e----|
|-----s-----s--s--s--1-|--2--2----------s--1-|--2--2--2----------s--1-|
|--2--t--2--t--t--t----|----------------t----|-------------------t----|

     e  e  e  e e  s  e  e     e  e  e  e  q^ q^ q^
N |------------h------------|-----------r-----------|
O |-----------1-2--2--2--2--|-----------e-----0--1--|
T |--2--2--2----------------|-----------s--0--------|
E |-------------------------|--2--2--2--t-----------|

   q  e  e e  e  e  e     e  e  e  e e  e  e  e     e  e  e  e e  e  e  e
|---------h------------|------------h------------|------------h------------|
|--------1-2--2--2--1--|-----------1-2--2--2--1--|-----------1-2--2--2-----|
|--2--2----------------|--2--2--2----------------|--2--2--2-------------0--|
|----------------------|-------------------------|-------------------------|

   e  e  e  e  e  e  e  e
|-----------------r--r---h|
|--4--4--4--4--4--e--e----|
|-----------------s--s--1-|
|-----------------t--t----|

(2)
   e  e  e  e e  s  e  e
|------------h------r-----|
|-----------1-2--2--e--2--|
|--2--2--2----------s-----|
|-------------------t-----|

(3)
   e  e  e  e  e  e  e  e
|--------------------------|
|--------------------------|
|--------------------------|
|--2--2--2--2--2--2--1--1--|

(4)
   e  e  e  e  e  e  q     e  e  e  e  e  e  q

|--------r--------------|--------r--------------|
|--------e--------------|--------e--------------|
|--------s--7--7--7--7--|--------s--7--7--7--7--|
|--0--0--t--------------|--0--0--t--------------|


(5)
      e   e  e  e  e  q  e     e  e  e  e  e  e  e
|--9--10--9--7--------------|--------7--------------|
|---------------9--9--------|-----7-----9--9--7-----|
|---------------------7--8--|--9-----------------9--|
|---------------------------|-----------------------|


(6)
      e  e  e  e  e  q  e     e  e  e  e  e  q  e
|--------------------------|-----------------------|
|--2--3--2--0--------------|--------0--------------|
|--------------2--2--------|-----0-----2--2--0--0--|
|--------------------0--1--|--2--------------------|


(7)
   e  e  e  e  e  e  e  e     e  e  e  e  e  e  e  e
|--------------------------|-------------------------|
|--------------------------|-------------------------|
|--------------------------|-----------------------1p|
|--2--2--2--2--2--2--2--0--|--2--2--2--2--2--2--2----|

(8)
      e  e  e  e  e  q  e     e  e  e  e  e  q  e
|--------------------------|-----------------------|
|--2--3--2--0--------------|--------0--------------|
|--------------2--2--------|-----0-----2--2--0-----|
|--------------------0--1--|--2-----------------2--|

(9)
      e  e  e  e  e  q  e     e  e  e  e  q  e  e
|--------------------------|--------------r--r-----|
|--2--3--2--0--------------|--------0-----e--e-----|
|--------------2--2--------|-----0-----2--s--s--1--|
|--------------------0--1--|--2-----------t--t-----|

(10)
   e  e  e  e  e  e  e  e     e  e  e  e  e  e  e  e     e  e  e  e  e  e  e  e
|--------------------------|--------------------------|--------------------------|
|-----------1--2--2--2--2--|-----------1--2--2--2--2--|-----------1--2--2--2-----|
|--2--2--2-----------------|--2--2--2-----------------|--2--2--2--------------0--|
|--------------------------|--------------------------|--------------------------|

   e  e  e  e  e  e  e  e
|-----------------2--------|
|--4--4--4--4--4-----0--1--|
|--------------------------|
|--------------------------|

(11)
   e e  e  e  e  e  e  e
|-------------------------|
|--3h4--4--4--4--4--4-----|
|----------------------0--|
|-------------------------|

(12)
     e  e  e  e  e  e  e  e     e  e  e  e  e  e  e  e   e  e  e  e  e  e  e  e
|--------------------------|--------------------------|--------------------------|
|-----------1--2--2--2--1--|-----------1--2--2--2--1--|-----------1--2--2--2-----|
|--2--2--2-----------------|--2--2--2-----------------|--2--2--2--------------0--|
|--------------------------|--------------------------|--------------------------|

(12 - 1st & 3rd)
   e  e  e  e  e  e  e  e
|--------------------------|
|--------------------0--1--|
|-----------------0--------|
|--2--2--2--2--2-----------|

(12 - 2nd)
   e  e  e  e  e  e  e  e
|--------------------------|
|--4--4--4--4--4--4--4-----|
|-----------------------0--|
|--------------------------|

(12 - 4th)
   e  e  e  e  e  e  e  e     e  e  e  e  e  e  e  e     e  e  e  e  e  e  e  e
|--------------------------|--------------------------|--------------------------|
|--------------------------|--------------------------|--------------------------|
|--------------------------|--------------------------|--------------------------|
|--2--2--2--2--2--2--2--2--|--2--2--2--2--2--2--2--0--|--2--2--2--2--2--2--2--2--|

   e  e  e  e  e  e  e  e     e  e  q  h
|--------------------------|-----r--r--r--||
|--------------------0--1--|-----e--e--e--||
|-----------------0--------|--2--s--s--s--||
|--2--2--2--2--2-----------|-----t--t--t--||

1    Intro
2    Play (1) twice with following changes 2nd time.
        On the two bars beginning NOTE
         - Replace the 1st bar with (2) then continue as normal.
        Replace last bar of the section with (3).
3    Play (4) then (5) N.B. (5) & (6) [First 3 Notes] Play 1st Then bend and release.
4    Play (4) then (6)
5    Play (7)
6    Play (1) once. As 2nd time in part 2.
7    Play (4) then (5) then (4) then (8)
8    Play (4) then (5) then (4) then (9)
9    Play (10) twice - 2nd time replace last bar with (11)
10   Play (12) four times - Replace last bar with appropriate section on each repeat.