Beatles - Helter Skelter

|----0-0-|-0-0-0-0-0-0-0-0-0-0-0-0-0-0-0-0-|-0-0-0-0-0-0-0-0-0-0-0-0-0-0-0-0-|
|---12s3-|-3-3-3-3-3-3-3-3-3-3-3-3-3-3-3-3-|-3-3-3-3-3-3-3-3-3-3-3-3-3-3-3-3-|
|--------|---------------------------------|---------------------------------|
|--------|---------------------------------|---------------------------------|
|--------|---------------------------------|---------------------------------|
|--------|---------------------------------|---------------------------------|
                         When I get to the bottom I go back to the top of the slide.

|-0-0-0-0-0-0-0-0-0-0-0-0-0-0-0-0--|-0-0-0-0-0-0-0-0-0-0-0-0-0-0-0-0-|
|-2-2-2-2-2-2-2-2-2-2-2-2-2-2-2-1--|-1-1-1-1-1-1-1-1-1-1-1-1-1-1-1-1-|
|----------------------------------|---------------------------------|
|----------------------------------|---------------------------------|
|----------------------------------|---------------------------------|
|----------------------------------|---------------------------------|                G
Where I stop and I turn and I go for a ride, Till I get to the bottom, and I see you again,
            E
Yeah, Yeah, Yeah!

Verse
E
Do you, don't you want me to love you?
I'm coming down fast, but I'm miles above you.
Tell me, tell me, tell me,
         G
Come on tell me the answer,
          A                                E
Well, you may be a lover, but you ain't no dancer.

Chorus
  A                         E
|-------------------------|-------------------------|
|-------------------------|-------------------------|
|-------------------------|-------------------------|
|-2-2-4-4-0-5-4-2---------|-------------------------|
|-0-0-0-0---------5-4-2-0-|-2-2-4-4-0-5-4-2---------|
|-------------------------|-0-0-0-0---------5-4-2-0-|
Helter Skelter, Helter Skelter,
A               E
Helter Skelter, yeah!

Verse

Chorus

E

Solo w/chorus

E
When I get to the bottom I go back to the top of the slide.
Where I stop and I turn and I go for a ride,
                                        G
Till I get to the bottom, and I see you again,
            E
Yeah, Yeah, Yeah!

Verse

Chorus

Outro
E w/chorus riff