The Beatles - Let It Be

Intro 

C G Am F C G F Em Dm C

Verse
        C             G                 Am          F
When I find myself in times of trouble, Mother Mary comes to me
   C               G             F Em Dm C
Speaking words of wisdom, let it be
    C             G                Am                F
And in my hour of darkness, She is standing right in front of me
    C             G              F Em Dm C
Speaking words of wisdom, Let it be

Chorus
       Am         G          F          C
Let it be, let it be, let it be, let it be
C                G              F Em Dm C
Whisper words of wisdom, let it be

Verse

Chorus x2

Bridge
-5---3-1-0-------|-----------------|
-6---5-3-1---3-1-|-0---------------|
-------------3-2-|-0---2---0-------|
-----------------|-----3---2-------|
-----------------|-----------------|
-----------------|-----------------|

Solo w/verse
------------------------|--------------------------------|------------------------|
------------------------|--------------------------------|------------------------|
---------5--5--L-5------|------------------------------5-|--7pbr----7br-L-5-------|
---------5h-7--L-5------|-------------5-5---5-----5S-7---|------------------------|
-------------------7-5--|-3--3--5S-7------7--------------|------------------------|
------------------------|--------------------------------|------------------------|

-----------8---------------5-----------|------------------------------------|
---------------------------------------|------------------------------------|
-----7S-9----9S-7-5h-7-7b-----7br-L-5--|----------------------------------5-|
---------------------------------------|--7p-5-7p-5------------------5h-7---|
---------------------------------------|------------7S-5-3h-5-3-------------|
---------------------------------------|------------------------------------|

-------------------------------------|----------------8-10b----10br--8h-10-|
----------------8--------8--------8--|--10------8h-10----------------------|
--5----5-7S-9-------7S-9-----7S-9----|-------------------------------------|
-----7-------------------------------|-------------------------------------|
-------------------------------------|-------------------------------------|
-------------------------------------|-------------------------------------|

--8----------15br--------------|-------------------------------------------------|
-----------0--------------15br-|----------13-15---15br---------13h-15-13---------|
-------------------------------|-------------------------------------------------|
-------------------------------|-------------------------------------------------|
-------------------------------|-------------------------------------------------|
-------------------------------|-------------------------------------------------|

Chorus

Verse

Chorus x2

Bridge x2

http://www.sparkystabs.co.uk