Blck Stone Cherry - Please Come In

Db Ab Db Gb Bb Eb tuning (Drop D down half a step)

Intro
|----------------------|
|----------------------|
|-4-4hbr-p2-1-2--------|
|----------------------|  x4
|----------------------|
|----------------0-3-0-|

|----------------------|
|-3-3hbr---------------|
|-4-4hbr-p2-1-2--------|
|----------------------| Main Riff
|----------------0-3-0-|
|----------------0-3-0-|

Verse
  F#5
|---------------------------------------|
|---------------------------------------|
|---------------------------------------| Verse followed by Main Riff
|---------------------------------------|
|-5----------5----------555-------------|
|-5----------5----------555----55555555-|

F#5
I have looked out my window
                        Main riff
You know shes no longer there
F#5
There's an angel standing
                          Main riff
In a place where she won't care
F#5
Couldn't be that easy
               C#
For her to say goodbye

  C#
|-------5-------5-------5-------5-|
|-----7---7---7---7---7---7---7---|
|---7-------7-------7-------7-----|
|---------------------------------| x2 (Goodbye)
|-5-------------------------------|
|---------------------------------|

Chorus
    C#       C#/C     Bbm      F#
|---------------------------------------|
|---77777777----------33333333----------|
|---77777777-77777777-44444444-77777777-|
|---77777777-77777777-44444444-77777777-| x2 Chorus
|---55555555-44444444-22222222-55555555-|
|------------------------------55555555-|

C#          C#/C
Please come in
      Bbm
Don't pretend
F#
Like the girl I had before
C#          C#/C
Please come in
      Bbm
Don't pretend
F#                         C#
I don't wanna hurt anymore

Verse
  F#
|---------------------------------------------------|
|---------------------------------------------------|
|---------------------------------------------------| 
|---------------------------------------------------| verse with riff
|-5----------5----------555---------5-3-0-3-0-------|
|-5----------5----------555-------------------5-0---|

F#
It must be the time
                   Main riff
For me to leave it behind
F#
Cause there's a new day out there
                          C# (as first verse)
Where the sun will always shine

Chorus

Middle
    Bbm      C#    x3 Eb       F#
|---------------------------------------|
|---33333333-77777777-------------------|
|---44444444-77777777-------------------|
|---44444444-77777777-22222222-55555555-| 
|---22222222-55555555-22222222-55555555-|
|---------------------22222222-55555555-|

Bbm                 C#
If you look out the window
Bbm                  C#
And there's an angel there
Bbm                C#
I hope she plays a guitar
     Eb       F#
With flowers, flowers in her hair.

Solo
    C#                         F#    Bb   G#   F#
|-----------------------------------------------------|
|-----------------------------------------------------|
|-----------------------------------------------------| 
|---(5)/12\-4-5-44-2s4-5-44-2s4-9---9-h11-12-11s-9-7--|
|---(5)/12\-------------------------------------------|
|-----------------------------------------------------|

Quiet chorus
 C#               C#C             Bbm             F#
|---5-------5-------5-------5-------5-------5-------5-------5-----|
|7----7---7---7---7---7---7---7---7---7---7---7---8---8---8---8---|
|7------7-------7-6-----6-------6-4-----4-------4-7-----7-------7-|x2
|-----------------------------------------------------------------|
|-----------------------------------------------------------------|
|-----------------------------------------------------------------|

            C#    C#/C
Please come in
             Bbm       
But don't pretend
F#                   C#  C#/C
Wont you please come in
F#
Listen baby

Chorus x2

Outro solo w/chorus

|-------------------------------------------------------------------|
|7----------8-7------7h8-7---7--------------------------------------|
|--7-----7------9-7--------9---9-7-9-76h7-7-7h9-9-9h11-12-11h12-14-| 
|----7h9------------------------------------------------------------| 
|-------------------------------------------------------------------|
|-------------------------------------------------------------------|

|----------------------------------------|			
|-------14-15-15--14-15-15-s17-15--------|
|-14-14----------------------------------| solo
|----------------------------------------| 
|----------------------------------------|
|----------------------------------------|

|---|
|---|
|-7-|
|-7-| final chord
|-5-|
|-5-|