Blink 182-Aliens Exist

  Intro Riff                          Fill after 1st verse   
   B5
  Palm mute______________| hold note     Pick scrape             
E|-----------|-----------|------------||------------|
B|-----------|-----------|------------||------------|
G|-----------|-----------|------------||------------|
D|-4444-4444-|-4444-4444-|------------||--\-\-\\\---|
A|-2222-2222-|-2222-2222-|-2----------||--\-\-\\\---|
E|-----------|-----------|------------||--\-\-\\\---|

   Riff A  
   B5                E5                G#5               E5  
E|-----------------|-----------------|-----------------|-----------------|
B|-----------------|-----------------|-----------------|-----------------|
G|-4-4-4-4-4---4-4-|-----------------|-----------------|-----------------|
D|-4-4-4-4-4---4-4-|-2-2-2-2-2---2-2-|-6-6-6-6-6---6-6-|-2-2-2-2-2---2-2-|
A|-2-2-2-2-2---2-2-|-2-2-2-2-2---2-2-|-6-6-6-6-6---6-6-|-2-2-2-2-2---2-2-|
E|-----------------|-0-0-0-0-0---0-0-|-4-4-4-4-4---4-4-|-0-0-0-0-0---0-0-|

  Verse Riff
   B5          F#5         G#5         E5     
  PM throughout       play 1st,2nd, and 4th times|
E|-----------|-----------|-----------|-----------|
B|-----------|-----------|-----------|-----------|
G|-----------|-----------|-----------|-----------|
D|-4444-4444-|-----------|-----------|-----------|
A|-2222-2222-|-4444-4444-|-6666-6666-|-2222-2222-|
E|-----------|-2222-2222-|-4444-4444-|-0000-0000-|
       Play this 3rd time
   B5          C#5         G#5         E5
E|-----------|-----------|-----------|-----------|
B|-----------|-----------|-----------|-----------|
G|-----------|-----------|-----------|-----------|
D|-4444-4444-|-6666-6666-|-----------|-----------|
A|-2222-2222-|-4444-4444-|-6666-6666-|-2222-2222-|
E|-----------|-----------|-4444-4444-|-0000-0000-|

    Chorus Riff A
   B5                F#5         
E|-----------------|-----------------|
B|-----------------|-----------------|
G|-4-4-4-4-4-4-4-4-|-----------------|
D|-4-4-4-4-4-4-4-4-|-4-4-4-4-4-4-4-4-|
A|-2-2-2-2-2-2-2-2-|-4-4-4-4-4-4-4-4-|
E|-----------------|-2-2-2-2-2-2-2-2-|

   Chorus Riff B
  PM  
   B                         E5
E|-------------------------------|-------------------------------|
B|-------------------------------|-------------------------------|
G|-------------------------------|-------------------------------|
D|-1-1-----1-1-----1-1-----1-1---|-2-2-----2-2-----2-2-----2-2---|
A|-----2-------2-------2-------2-|-----2-------2-------2-------2-|
E|-------------------------------|-------------------------------|

   Chorus Riff C
A|-----------------2--------|------------------------|
E|-2-------0----------------|-2---------0------------|

  Little Riff in 2nd Verse 
   PM                       
G|-88----------------------|
D|---9-----9----889-889----|
A|-------------------------|
E|-------------------------|

   Interlude
  {Play B octaves in 2nd position throughout}
   D#octave             C#octave             Eoctave              C#octave
E|---------------------|--------------------|--------------------|-------------------|
B|---------------------|--------------------|--------------------|-------------------|
G|-8888-8888-8888-8888\|6666-6666-6666-6666/|9999-9999-9999-9999-|6666-6666-6666-6666|
D|---------------------|--------------------|--------------------|-------------------|
A|-6666-6666-6666-6666\|4444-4444-4444-4444/|7777-7777-7777-7777-|4444-4444-4444-4444|
E|---------------------|--------------------|--------------------|-------------------|

Chords for vocal part of Interlude: G#5   F#5    E5  B5 C#5


====================Lyrics==============================================
-----------Verse--------------------------------
Hey mom there's something the backroom
I hope it's not the creatures from above
You used to read me stories 
As if my dreams were boring
We all know conspiracies are dumb
       {Riff A}

     {w/Verse Riff}
What if people knew that these were real
I'd leave my closet door open all night
I know the CIA would say
What you hear is all hearsay
I wish someone would tell me what was right

----------Chorus-----------------------------------
      {Chorus Riff A}
Up all night long
And there's something very wrong
      {Chorus Riff B}
And I know it must be late
Been gone since yesterday
      {Chorus Riff C}
I'm not like you guys
I'm not like you
      {Riff A}

----------Verse{w/Verse Riff and little riff}---------
I am still a skeptic yes you know me
Been best friends and will be till we die
I got an injection 
Of fear from the abduction
My best friend thinks I'm just telling lies
  
       Alright 
----------Chorus-----------------------------------
      {Chorus Riff A}
Up all night long
And there's something very wrong
      {Chorus Riff B}
And I know it must be late
Been gone since yesterday
      {Chorus Riff C}
I'm not like you guys
I'm not like you
----------Interlude-----------------------------------
       {B octaves} 
    {Interlude Riff w/ B octaves}

     {w/ chords and Interlude riff}
Dark and scary, ordinary, explanation
Information, nice to know ya, paranoia,
Where's my mother, biofather

----------Chorus-----------------------------------
{Chorus Riff A}
Up all night long
And there's something very wrong
      {Chorus Riff B}
And I know it must be late
Been gone since yesterday
      {Chorus Riff C}
I'm not like you guys
Twelve majestic lies
-------------End on B5-------------------------------