Blink 182-All The Small Things

INTRO

 G5 F5     C5              F(bass plays C)         G5                       F5
E|-----||------------------------------------------------------------------------||
B|-----||------------------------------------------------------------------------||
G|-----||.-5-5-5-5-5-5-5-5-10-10-10-10-10-10-10-10------------------------------.||
D|-5-3-||.-5-5-5-5-5-5-5-5-10-10-10-10-10-10-10-10-5-5-5-5-5-5-5-5-5--x-x-x-3-3-.||
A|-5-3-||--3-3-3-3-3-3-3-3-8--8--8--8--8--8--8--8--5-5-5-5-5-5-5-5-5--x-x-x-3-3--||
E|-3-1-||------------------------------------------3-3-3-3-3-3-3-3-3--x-x-x-1-1--||
  
VERSE 1: [play the chords palm-muted]
C5         G5
  All the,   small things
F5          G5
  True care,  truth brings
C5          G5
  I'll take,  one lift
F5          G5
  Your ride,  best trip
C5       G5
  Always,  I know
F5         G5
  You'll be  at my show
C5         G5        F5     G5
  Watching,  waiting,  commiserating
   
PRE-CHORUS:
C5
Say it ain't so, I will not go,
turn the lights off, carry me home

CHORUS
C5
Na na  na na  na na  na na  na na
G5               F5
Na na  na na  na na  na na  na na
C5
Na na  na na  na na  na na  na na
G5               F5
Na na  na na  na na  na na  na na

INTERLUDE:
   C5                                  G5                        F5
E|-------------------------------------------------------------------|
B|-------------------------------------------------------------------|
G|-5-5-5-5-5-5-5-5-10-10-10-10-9-9-9-9-7-7-7-7-7-7-7-7-7-------------|
D|-x-x-x-x-x-x-x-x-x--x--x--x--x-x-x-x-x-x-x-x-x-x-x-x-x-x-x-x-x-3-3-|  x2
A|-3-3-3-3-3-3-3-3-8--8--8--8--7-7-7-7-5-5-5-5-5-5-5-5-5-x-x-x-x-3-3-|
E|-------------------------------------------------------x-x-x-x-1-1-|   
   
VERSE 2:
Late night, come home
Work sucks, I know
She left me roses by the stairs,
surprises let me know she cares
  
PRE-CHORUS:
Say it ain't so, I will not go,
Turn the lights off, carry me home
   
   
CHORUS: [play like first chorus]
Na na  na na  na na  na na  na na
Na na  na na  na na  na na  na na
Na na  na na  na na  na na  na na
Na na  na na  na na  na na  na na
   
BRIDGE: 
   (C5)                            (F5)            (G5)
E|-------------------------------------------------------------------|
B|-------------------------------------------------------------------|
G|--5---5---5---5---5---5---5---5---5---5---5---5---4---4---4---4----|     x4
D|----5---5---5---5---5---5---5---5---5---5---5---5---5---5---5---5--|(bass only 
A|-------------------------------------------------------------------| 1st time)
E|-------------------------------------------------------------------|

CHORUS/OUTRO:
C5                            G5
Say it ain't so, I will not go,
                F5            C5
Turn the lights off, carry me home
C5                                 G5
Keep your head still, I'll be your thrill,
                  F5                C5
The night will go on, my little windmill
C5                          G5
Say it ain't so, I will not go,
                F5            C5
Turn the lights off, carry me home
C5                                 G5
Keep your head still, I'll be your thrill,
                  F5
The night will go on, the night will go on
              C5
My little windmill