Blink 182-Don't Leave Me

   Riff A
   PM           PM            PM           
E|---------------------------|-----------------------------|
B|---------------------------|-----------------------------|
G|------2-2-2-2------7-7-7-7-|-----4-4-4-4-7-7-7-7-9-9-9-9-|
D|------2-2-2-2------7-7-7-7-|-----4-4-4-4-7-7-7-7-9-9-9-9-|
A|-0000-0-0-0-0-5555-5-5-5-5-|2222-2-2-2-2-5-5-5-5-7-7-7-7-|
E|---------------------------|-----------------------------|

  Fill between verse and 
A|0000-0000-|   chorus
E|----------|
  Riff B {Chorus}                                    PM
                     |__1st_and_3rd_times|___________2nd time|     
E|-------------------|-------------------|-------------------|
B|-------------------|-------------------|-------------------|
G|-------------------|-7-7-77-7-9-9-99-9-|-7-7-7-7-9---------|
D|-7-7-77-7-9-9-99-9-|-7-7-77-7-9-9-99-9-|-7-7-7-7-9---------|
A|-7-7-77-7-9-9-99-9-|-5-5-55-5-7-7-77-7-|-5-5-5-5-7-77-7777-|
E|-5-5-55-5-7-7-77-7-|-------------------|-------------------|

 |__________4th time|              
E|------------------|
B|------------------|
G|-7-7-77-7-7-7-7-7-|
D|-7-7-77-7-7-7-7-7-|
A|-5-5-55-5-5-5-5-5-| Back to Riff A
E|------------------|

   Interlude              3x
G|-2-2-2--2-2--2-2-2--2-2----|
D|-2-2-2--2-2--2-2-2--2-2--+-|
A|-0-0-0--0-0--0-0-0--0-0--+-| play fill 
E|---------------------------| 4th time and go to chorus

==================Lyrics==================================
-------------Verse------------------------------
Don't leave me all alone
Just drop me off at home
I'll be fine, it's not the first
Just like last time, but a little worse 

-------------Chorus--------------------------------------
She said that I'm not the one that she thinks about and
She said it stopped being fun, I just bring her down
I said don't let your future be destroyed by my past
She said "don't let my door hit your ass"

--------------Verse--------------------------------------  
One more chance, I'll try this time
I'll give you yours, I won't take mine
I'll listen up, pretend to care
Go on ahead, I'll meet you there

-------------Chorus--------------------------------------
She said that I'm not the one that she thinks about and
She said it stopped being fun, I just bring her down
I said don't let your future be destroyed by my past
She said "don't let my door hit your ass"

----------------Interlude-------------------------------
Let's try this one more time with feeling
Let's try this one more time with feeling
             one more time with feeling
              one more time with feeling

-------------Chorus--------------------------------------
She said that I'm not the one that she thinks about and
She said it stopped being fun, I just bring her down
I said don't let your future be destroyed by my past
She said "don't let my door hit your ass"

-------------Outro--------------------------------------
A5
Don't leave me all alone
                         D5
Just drop me off at home and 
        A5
I'll be fine
==========================End on A5=============================