Blink 182-Dumpweed

  [Riff A]

E|------------------------|------------------|------------------------|
B|------------------------|------------------|------------------------|
G|----1-1h2-1-------------|----1-1h2-1-------|(2)-1-1h2-1---------(2)-|
D|(2)-------------4---(2)-|(2)-------------4-|(2)-------------4---(2)-|
A|(2)---------2-0---0/(2)-|(2)---------2-0---|(0)---------2-0---0/(0)-|
E|(0)-----------------(0)-|(0)---------------|------------------------|
   2 guitars on same tab line (second guitar is in parenthesis)
                 {Slashes mean it's played at same time}

                      [Riff B]
|--------------------|--4p0-------4p0------|--2p0-------2p0------|
|--------------0-----|-------5p0-------5p0-|-------5p0-------5p0-|
|--(2)-1-1h2-1-----4-|---------------------|-(2)--(2)--(2)--(2)--|
|--(2)-----------2---|-(2)--(2)--(2)--(2)--|-(2)--(2)--(2)--(2)--|
|0/(0)---------------|-(2)--(2)--(2)--(2)--|-(0)--(0)--(0)--(0)--|
|--------------------|-(0)--(0)--(0)--(0)--|---------------------|



                                              
                                                   
|-4p0-------4p0------|-5p0-------5p0------|
|------5p0-------5p0-|------5p0-------5p0-|
|(4)--(4)--(4)--(4)--|(4)--(4)--(2)--(2)--|
|(4)--(4)--(4)--(4)--|(4)--(4)--(2)--(2)--|
|(2)--(2)--(2)--(2)--|(2)--(2)--(0)--(0)--|
|--------------------|--------------------|
                                              

   [Verse Riff]
                                       
      PM____________________|          PM____________________|
|-------------------|------------||------------------|------------|
|*------------------|-----------*||*-----------------|-----------*|
|-------------------|------------||-+2---------------|------------|
|--+2---------------|-4-------4--||-+2---------------|-4-------4--|
|*-+2---------------|-2-2-2-2-2-*||*-0-0-0-0-0-0-0-0-|-2-2-2-2-2-*|
|---0-0-0-0-0-0-0-0-|------------||------------------|------------|
    (+ = Second time don't play)
    
  [Chorus]                

||----------|---------|---------|----------||---------||
||*---------|---------|---------|---------*||---------||
||----------|-4-4-4-4-|-2-2-2-2-|-4-4-4-4--||-4----4--||
||--2-2-2-2-|-4-4-4-4-|-2-2-2-2-|-4-4-4-4--||-4----4--||
||*-2-2-2-2-|-2-2-2-2-|-0-0-0-0-|-2-2-2-2-*||-2----2--||
||--0-0-0-0-|---------|---------|----------||---------||
                                |First Time|Second Time|

    [Solo Riff]
   PM__________________________________________________|
||-4---------|----------|4---------|5-----------||5----------|
||*--5---5---|7-5---5---|--5---5---|--5---7----*||--5---5-`7-|
||-----4---4-|----4---4-|----4---4-|----4---4---||----4------|
||-----------|----------|----------|------------||-----------|
||*----------|----------|----------|-----------*||-----------|
||-----------|----------|----------|------------||-----------|
                                   | First Time ||Second Time|  
  {`On the full repeat of this riff,}
  {  cut this note off and end on E }
              
============Song Structure================================
Riff A
Riff B 2x
Verse Riff 2x
Riff A
Chorus
Riff B 2x
Verse Riff
Riff A
Chorus 2x
Verse Riff 2x
Solo Riff 2x {over Riff C 2x}
End on E
=============Lyrics=======================================
	VERSE
It's understood, I said it many ways
Too scared to run, I'm too scared to stay
I said I'd leave, but I could never leave her
And if I did, you know I'd never cheat her
But this I ask, It's what I want to know
How would you feel, If I should choose to go
Another guy, you'd think it'd be unlikely
Another, guy, you'd think he'd want to fight me

	CHORUS
She's a dove, She's a fuckin nightmare
Unpredictable, it was my mistake to stay here
On the go and it's way too late to play
I need a girl that I can train

	VERSE
I heard it once, I'm sure I've heard it twice
My dad used to give me all of his advice
He would say you got to turn your back and run now
Come on son, you haven't got a chance now

	CHORUS
She's a dove, She's a fuckin nightmare
Unpredictable, it was my mistake to stay here
On the go and it's way too late to play
I need a girl that I can train

	VERSE {More like an outro}
I need a girl that I can train
Need a girl that I can train
I need a girl that I can train
Turn your back and run now 
You haven't got a chance now