Blink 182-Man Overboard
   
G5 (355xxx)
A5 (x022xx)
C5 (x355xx)
D5 (x577xx)
E5 (022xxx)
E2 (x799xx)

   
Intro 
(bass)

G5         A5          C5
  So sorry   it's over
G5         A5          C5
  So sorry   it's over
        G5                  A5
There's so much more that I wanted and    
        C5
There's so much more that I needed and
G5                A5            C5
Time keeps moving on and on and on
D5 
Soon we'll all be gone
   
    G5                       E5        C5
E|---------------------------------------------------
B|---------------------------------------------------
G|---------------------------------------------------
D|---------------------------------------------------
A|----0-2h3-2---0-2h3-2--0-----0-2h3-2---0-2h3-2--0--
E|--3------------------------0-----------------------     x2
   
    G5         D5           E2         C5
E---------------------------------------------------
B---------------------------------------------------
G---------------------------------------------------
D---5-5-----0---0-0h2-0-----5-5-----0---0-0h2-0-----
A-------2h3--------------3------2h3--------------3--
E---------------------------------------------------     x2
  
Verse [play chords palm-muted]
G5
  Let's take some time to talk this over
E5                   C5
  You're out of line and rarely sober
G5                
  We can't depend, on your excuses
E5                  C5
  'Cause in the end it's fucking useless

Chorus
G5                 D5
You can only lean, on me for so long
E2                   C5
Bring the ship about to watch a friend drown
G5                    D5
Sit out on the ledge, begged you to come down
E2                C5
You can only lean on me for so long
   
    G5                       E5        C5
E|---------------------------------------------------
B|---------------------------------------------------
G|---------------------------------------------------
D|---------------------------------------------------
A|----0-2h3-2---0-2h3-2--0-----0-2h3-2---0-2h3-2--0--
E|--3------------------------0-----------------------      x2
   
Verse
I remember shots, without a chaser
Absent minded thoughts now you're a stranger
Cover up the scars, put on your gameface
Left you in the bar to try and save face

Chorus 
You can only lean, on me for so long
Bring the ship about to watch a friend drown
Sit out on the ledge, begged you to come down
You can only lean on me for so long

w/intro
So sorry it's over
So sorry it's over
There's so much more that I wanted and    
There's so much more that I needed and
Time keeps moving on and on and on
Soon we'll all be gone

    G5                       E5        C5
E|---------------------------------------------------
B|---------------------------------------------------
G|---------------------------------------------------
D|---------------------------------------------------
A|----0-2h3-2---0-2h3-2--0-----0-2h3-2---0-2h3-2--0--
E|--3------------------------0-----------------------     x2
   
    G5         D5           E2         C5
E---------------------------------------------------
B---------------------------------------------------
G---------------------------------------------------
D---5-5-----0---0-0h2-0-----5-5-----0---0-0h2-0-----
A-------2h3--------------3------2h3--------------3--
E---------------------------------------------------     x2
   
   
Outro
G5                  C5
  Man on a mission, can't say I miss him around
G5        A5           C5
  Insider information, hand in your resignation
G5                       C5
  Loss of a good friend, best of intentions I found
G5                A5
  Tight lipped procrastination
C5            D5         G5
  Yeah later, see you around